Mona - Lines In The Sand tab

-----------------------------------------------------------------------------
			     MONA - Lines in the Sand
-----------------------------------------------------------------------------

Listen to the song as you use this tab please.

Rhythm: Chord progression of E to A
"Lines are in the sand......"   "Might as well be burning pieces.."
e|------------------------------------------------------------|
B|------------------------------------------2-2-2-------------|
G|-(1)-(1)-(1)------------------------------2-2-2-------------|
D|--2---2---2-------------------------------2-2-2-------------|
A|--2---2---2-------------------------------0-0-0-------------|
E|--0---0---0-------------------------------x-x-x-------------|
 
This chord progression is repeated throughout the song by the rhythm guitarist 
Nick Brown (lead singer).

Lead:
e|-7-------------------7--------------------7----|
B|-9-------------------9--------------------9----|  This is repeated during
G|-9------14-13---9----9------14-13---9-----9----|  all verses
D|-9------14-14---9----9------14-14---9-----9----|  
A|-7------x--x----x----7------x--x----x-----7----|
E|-7------x--x----x----7------x--x----x-----7----|

Lead: Pre-chorus and chorus
Starts from "Walk away..."
e|-----------------------------------------------------|
B|--7-9-10-9-7----7-9-10-9-7---7-9-10-9-7--7-9-10-9-7--| repeat as needed
G|-9------------8-------------6-----------8------------| 
D|-----------------------------------------------------|
A|-----------------------------------------------------|
E|-----------------------------------------------------|
Then end this riff on the following:
e|------------------------------------------------|
B|--7-9-10-9-7---7-9-10-9-7-----------------------|
G|-9------------8------------6~~~-----------------| Played as the chorus ends
D|------------------------------------------------|
A|------------------------------------------------|
E|------------------------------------------------|


lines are in the sand
take your money man
might as well be throwing pieces
I don't want you
I don't need it
I don't want you
I don't need it

cause the sex is hot
You know that shes on fire
and you calling when we've been close the line
I don't want you
I don't need it
I don't want you
walk away
walk away

it's cold outside
you are alone tonight
it's cold outside

lines are in the sand
take your money man
why you keep on trying to feed this
I don't want you
I don't need it
I don't want you


When you're turning red
Face is turning blue
do the math baby.. I am done with you

I don't want you
I don't need it
I don't want you
walk away
walk away

it's cold outside
you are alone tonight
it's cold outside

it's cold outside
you are alone tonight
it's cold

Only your mouth been all over the city
you think that I'll be through
give up all the things that I had
can't be something can't be something wrong

it's cold outside
you are alone tonight
it's cold outside
it's cold
it's cold




************************************

| /   slide up
| \   slide down
| h   hammer-on
| p   pull-off
| ~   vibrato
| +   harmonic
| x   Mute note
| b   Bend
| pb  Pre-bend
| br  Bend release
| pbr Pre-bend release
| brb Bend release bend

************************************
Tap to rate this tab
 
# A B C D E F G H I J K L M N O P Q R S T U V W X Y Z