Song name
# A B C D E F G H I J K L M N O P Q R S T U V W X Y Z

Mona - Lean Into The Fall tab

---------------------------------------------------------------------------
			     LEAN INTO THE FALL - Mona
---------------------------------------------------------------------------

Tuning: standard

Chords for verse

Not too sure on name on first chord, ive put it down as Cadd2 but i thought it 
could be  Em7#5/C or  G6sus4/C as well so whatever u want to call it.

  Cadd2 ?     Em         Am         Cadd2
e|----8----------0----------0-----------8---------------------------------|
B|----8----------0----------1-----------8---------------------------------|
G|----0----------0----------2-----------0---------------------------------|
D|----0----------2----------2-----------0---------------------------------|
A|----7----------2----------0-----------7---------------------------------|
E|----8----------0----------0-----------8---------------------------------|

verses:

Cadd2
Here we go from town to town

Em
Set them up, I'll knock 'em down

Am                              Cadd2
Another drink, Another round we go

Cadd2
I don't know which road to take

Em
Holding on, for heaven's sake

Am                             Cadd2
Looking for the words to say to you

This repeats for all verses.

Chorus
     G      G shape     Cadd2 
         (Am7b13bb5/D)  
e|---3--------13----------8------------------------------------|
B|---3--------13----------8------------------------------------|
G|---0--------0-----------0------------------------------------|
D|---0--------0-----------0------------------------------------|
A|---2--------12----------7------------------------------------|
E|---3--------13----------8------------------------------------|

G
You gotta lean into the fall

Am7b13bb5/D (this chord is the G shape @ 13th fret)
Lean into the fall

Cadd2
oh-oh


Lead guitar:

Main riff (played during verses)
e|-----------------------------------------------------------------------|
B|-----------------------------------------------------------------------|
G|---9----9-----9-----9-----12----12----12----12----10---10---10---10----|
D|10---10----10----10----------------------------------------------------|
A|------------------------14----14----14---14----12---12----12---12------|
E|-----------------------------------------------------------------------|

e|-----------------------------|
B|-----------------------------|
G|----9---9---9---9------------|
D|-----------------------------|
A|--10--10--10--10-------------|
E|-----------------------------|

Chorus Lead guitar:
    G barre   then an F chord   then a C chord
e|---3----------1-------------------8----------------------|
B|---3----------1-------------------8----------------------|
G|---4----------2-------------------9----------------------|
D|---5----------3-------------------10---------------------|
A|---5----------3-------------------10---------------------|
E|---3----------1-------------------8----------------------|

Solo:
e|-------------------|
B|-------5-3---------|
G|---2-5-----5-------| This part repeats while there is no singing
D|-5-----------------|
A|-------------------|
E|-------------------|

Singing starts again: "No, I can't find you..."
e|-------------------|
B|-------5-3---------|
G|---2~------5-------|
D|-5-----------5~~---|
A|-------------------|
E|-------------------|
Tap to rate this tab
# A B C D E F G H I J K L M N O P Q R S T U V W X Y Z