Song name
# A B C D E F G H I J K L M N O P Q R S T U V W X Y Z

Mona - Lean Into The Fall chords

Highlighted       Show chord diagrams
Tuning: Standard

Intro & First Verse:

e|---------------3--3--3--3--1--1--1--1--0--0--0--0----------------|
B|--5--5--5--5-----------------------------------------------------|
G|5--5--5--5---4--4--4--4--2--2--2--2--0--0--0--0------------------|
D|-----------------------------------------------------------------|
A|-----------------------------------------------------------------|
E|-----------------------------------------------------------------|


Here we go from town to town
Set them up I'll knock them down
Another drink, another round we go

I don't know which road to take
Holding on for heaven's sake
Looking for the words to say to you

And I feel the push and pull
Taste the flesh and lose your soul
I think that I'll just let go to you


Chorus (do all bar chords)
           G
You gotta lean into the fall
F                      C
Lean into the fall, oh
           G
You gotta lean into the fall
F                      C
Lean into the fall, oh

Verse 2 - (you can go back to the picking from the intro and first verse, but I prefer 
to do chords to keep the momentum up)

C
Oh, I like the way she looks
C/B
Hope she cleans and hope she cooks
Am                                 G
Take her home, a second look, no need

C
Is this sex or is it love?
C/B
Hoping you don't call my bluff
Am                                 G
Either way you're something that I need

C
And I feel so justified
C/B
Laying next to you tonight
Am                                 G
Hear the sound, it's calling out to me


(Chorus)
You gotta lean into the fall
Lean into the fall, oh
You gotta lean into the fall
Lean into the fall, oh

(break)
chords:
Am - G - C
Am - G - C

Tab:
e|-----------------------------------------------------------------------------|
B|-----------------------------------------------------------------------------|
G|0----2--5--9----7--5--0----2--5--9----7--5-----------------------------------|
D|-----------------------------------------------------------------------------|
A|-----------------------------------------------------------------------------|
E|-----------------------------------------------------------------------------|

(continue above chords in this section)
        Am   G     C
No, I can't find you
        Am    G      C
No, I don't want to
No, I can't find you
No, I don't want to
No, I can't find you
Tap to rate this tab
# A B C D E F G H I J K L M N O P Q R S T U V W X Y Z