Song name
# A B C D E F G H I J K L M N O P Q R S T U V W X Y Z

Mona - Teenager tab

Mona - Teenager
From the album: Mona

Tuning: standard (E A D G B E)

Intro

E||-14~--------9~--------7~--------3~--------||
B||-15~-------10~--------8~--------2~--------||
G||-14~--------9~--------7~--------3~--------|| x2
D||------------------------------------------||
A||------------------------------------------||
E||------------------------------------------||

Intro/Pre-Verse

E||-14--------9--------7~--------3~--------||
B||-15-x8----10-x8-----8~-x8-----2~-x8-----||
G||-14--------9--------7~--------3~--------|| x2
D||----------------------------------------||
A||----------------------------------------||
E||----------------------------------------||

Verse

E||-14~--------9~--------7~--------3~--------||
B||-15~-------10~--------8~--------2~--------||
G||-14~--------9~--------7~--------3~--------|| x2
D||------------------------------------------||
A||------------------------------------------||
E||------------------------------------------||

Chorus

E||---x-x--x-x---||
B||---x-x--x-x---||
G||---x-x--x-x---||
D||---x-x--x-x---||
A||---x-x--x-x---||
E||---x-x--x-x---||

E||-14--------9--------7~--------3~--------||
B||-15-x8----10-x8-----8~-x8-----2~-x8-----||
G||-14--------9--------7~--------3~--------|| x2
D||----------------------------------------|| 
A||----------------------------------------||
E||----------------------------------------||


Verse

E||-14~--------9~--------7~--------3~--------||
B||-15~-------10~--------8~--------2~--------||
G||-14~--------9~--------7~--------3~--------|| x2
D||------------------------------------------||
A||------------------------------------------||
E||------------------------------------------||

Chorus

E||---x-x--x-x---||
B||---x-x--x-x---||
G||---x-x--x-x---||
D||---x-x--x-x---||
A||---x-x--x-x---||
E||---x-x--x-x---||

E||-14--------9--------7~--------3~--------||
B||-15-x8----10-x8-----8~-x8-----2~-x8-----||
G||-14--------9--------7~--------3~--------|| x2
D||----------------------------------------|| 
A||----------------------------------------||
E||----------------------------------------||

Bridge

Guitar 2
                            
E||--------------------------------------------------------------------||
B||---------8----------------8----------------8----------------8-------||
G||-------8---8------------8---8------------8---8------------8---8-----|| x2 
D||-----9-------9--------9-------9--------9-------9--------9-------9---||
A||---9-----------9----9-----------9----9-----------9----9-----------9-||
E||-7----------------5----------------4----------------7---------------||

Guitar 1 comes in second time around.

Guitar1

E||-14-------||
B||-15-x32---||
G||-14-------||
D||----------||
A||----------||
E||----------||

Intro/ Verse

E||-14~--------9~--------7~--------3~--------||
B||-15~-------10~--------8~--------2~--------||
G||-14~--------9~--------7~--------3~--------|| x2
D||------------------------------------------||
A||------------------------------------------||
E||------------------------------------------||

Chorus 

E||---x-x--x-x---||
B||---x-x--x-x---||
G||---x-x--x-x---||
D||---x-x--x-x---||
A||---x-x--x-x---||
E||---x-x--x-x---||

E||-14--------9--------7~--------3~--------||
B||-15-x8----10-x8-----8~-x8-----2~-x8-----||
G||-14--------9--------7~--------3~--------|| x2
D||----------------------------------------|| 
A||----------------------------------------||
E||----------------------------------------||


Tablature Legend
----------------
 h   - hammer-on
 p   - pull-off
 b   - bend
 pb  - pre-bend
 r   - bend release (if no number after the r, then release immediately)
 /\  - slide into or out of (from/to "nowhere")
 s   - legato slide
 S   - shift slide
  - natural harmonic
[n]  - artificial harmonic
n(n) - tapped harmonic
 ~   - vibrato
 tr  - trill
 T   - tap
 TP  - trem. picking
 PM  - palm muting
\n/  - tremolo bar dip; n = amount to dip
 \n  - tremolo bar down
 n/  - tremolo bar up
/n\  - tremolo bar inverted dip
 =   - hold bend; also acts as connecting device for hammers/pulls
 <>  - volume swell (louder/softer)
 x   - on rhythm slash represents muted slash
 o   - on rhythm slash represents single note slash

The End!

Thanks And Hope You Enjoy!
Tap to rate this tab
# A B C D E F G H I J K L M N O P Q R S T U V W X Y Z