Song name
# A B C D E F G H I J K L M N O P Q R S T U V W X Y Z

Monday In London - Canary In A Coalmine tab

----------------------------------------------------------------------------
	Canary in a Coalmine- Monday In London  
----------------------------------------------------------------------------



~ hold note
                         verse
e|----------------------------------------------------------------------|
B|----------------------------------------------------------------------|
G|-1010---101010---101010--10-9-----------------------------------------|
D|----------------------------------------------------------------------|X10
A|-8 8----8-8-8----8-8-8---8--7-----------------------------------------|
E|----------------------------------------------------------------------|
                         chorus   
e|----------------------------------------------------------------------|
B|----------------------------------------------------------------------|
G|----------------------------------------------------------------------|
D|-10-9-10---10-9-10---10-9-10---1010101010101010---99999999------------|X4
A|-8--7-8----8--7-8----8--7-8----8-8-8-8-8-8-8-8----77777777------------|
E|----------------------------------------------------------------------|
                          bridge1            
e|----------------------------------------------------------------------|
B|----------------------------------------------------------------------|
G|----------------------------------------------------------------------|
D|10101010101010101010101010101010---9999999999999999-------------------|X2
A|8-8-8-8-8-8-8-8-8-8-8-8-8-8-8-8----7777777777777777-------------------|
E|----------------------------------------------------------------------|
                          bridge2
e|----------------------------------------------------------------------|
B|----------------------------------------------------------------------|
G|----------------------------------------------------------------------|
D|7~--------7~-------7~-------7~----------------------------------------|X1
A|5~--------5~-------5~-------5~----------------------------------------|
E|----------------------------------------------------------------------|
                          bridge3
e|12---------12---------------------------------------------------------|
B|---15---------15----15-14---------------------------------------------|
G|-------14~-------14-------14------------------------------------------|
D|----------------------------------------------------------------------|X4
A|----------------------------------------------------------------------|
E|----------------------------------------------------------------------|
                          bridge4
e|--7---77----7---77----7---77----7---77--------------------------------|
B|----------------------------------------------------------------------|
G|----------------------------------------------------------------------|
D|----------------------------------------------------------------------|X1
A|----------------------------------------------------------------------|
E|----------------------------------------------------------------------|
                          bridge5
e|----------------------------------------------------------------------|
B|----------------------------------------------------------------------|
G|----------------------7-6-7-6-7-6-------------------------------------|
D|--12-11-12-11-12-11---------------------------------------------------|
A|----------------------------------------------------------------------|
E|----------------------------------------------------------------------|
                          bridge6
e|----------------------------------------------------------------------|
B|----------------------------------------------------------------------|
G|----------bass only---------------------------------------------------|
D|----------------------------------------------------------------------|X1
A|----------------------------------------------------------------------|
E|----------------------------------------------------------------------|

song order

verse
chorus
bridge1
bridge2
chorus
bridge3
verse
bridge4
bridge5
bridge6
chorus
outro(verse played one time)
Tap to rate this tab
 
# A B C D E F G H I J K L M N O P Q R S T U V W X Y Z