Mondo Generator - 13th Floor tab

MONDO GENERATOR - 13th Floor (Tension Head)
Tabbed by NzT


Intro riff
E-----------------------|
B-----------------------|
G-----------------------|
D-----------------------|
A---7---6---5-----------|
E-0-------7---6---0---5b|


Verse riff
E--------------|--------------|--------------|--------------|
B--------------|--------------|--------------|--------------|
G--------------|--------------|--------------|--------------|
D--------------|--------------|--------------|--------------|
A---10-10-10-10|---10-10-10-10|---10-10-10-10|---10-10-10-10|
E-0~~~~~~~~~~~~|-0~~~~~~~~~~~~|-0~~~~~~~~~~~~|-0~~~~~~~~~~~~|


Verse riff 2 (played at the end of each riff)
E--------------|
B--------------|
G--------------|
D--------------|
A---10-12-13-15|
E-0------------|


Chorus Riff
E-------------x-------------------|
B-------------x-------------------|
G-------------x-------------------|
D-------------x---5-5-5-5--5-5-5-5|
A---7---6-----x---5-5-5-5--5-5-5-5|
E-0-------7---x---3-3-3-3--2-2-2-2|
Tap to rate this tab
 
# A B C D E F G H I J K L M N O P Q R S T U V W X Y Z