Song name
# A B C D E F G H I J K L M N O P Q R S T U V W X Y Z

Mondo Generator - She Only Owns You tab

-------------------------------------------------------------------------------
                             She Only Owns You - Mondo Generator
-------------------------------------------------------------------------------
Tabbed by: Matt North
E-mail: youwhowouldknow@gmail.com

Tuning: Standard EADGBE

Music & Lyrics by Mondo Generator:
Rex Everything aka Nick Oliveri
Ian Taylor
Spud
Ernie Longoria

(played with live version off youtube.com
http://youtu.be/YF5Zy2pmh6w
)


************************************
| +  down stroke
| ^  up stroke
| $  quick break
| x  Mute note
************************************


INTRO/VERSION:
e|---------------------------------------|
B|---------------------------------------|
G|---------------------5-5-5--5-5--4-2---|  2 times intro/without lyrics
D|-2-2-2-----5-5-5-----x-x-x--x-x--x-2---|  4 times with lyrics
A|-2-2-2--$--5-5-5--$--3-3-3--3-3--2-0---|
E|-0-0-0-----3-3-3-----------------------|
  + ^ +     + ^ +     + ^ +  ^ +  + +

 Don't want to hear your voice
 Just want a lay of the land
 And I know you're still waiting on me
 This I understand...and

PRE-CHORUS:
e|----------------------------------|
B|----------------------------------|
G|---4-------5----------------------|  3 times
D|---x-$-5-$-5-$----7-7-7-7-7-7-7---|
A|---2---5---3---0--7-7-7-7-7-7-7---|
E|-------3-------0--5-5-5-5-5-5-5---|
  Wanna f1ck you
  I want you to see
  You want a lot of things

e|----------------|
B|----------------|
G|--4-------5-----|
D|--x-$-5-$-5--0--|
A|--2---5---3--0--|
E|------3---------|

CHORUS:
e|---------------------------|
B|---------------------------|
G|--4--------5-------7-------|
D|--4-(x12)--5-(x7) -7-(x7)--|  (Listen to song, just plays those chords X # of times)
A|--2--------3-------5-------|
E|---------------------------|
 That's why you wait here on me...and this I understand...

e|-----------------------------------|
B|-----------------------------------|
G|--4------------------------9-------|
D|--4-(x12)--5-------2-------9-(x7)--|
A|--2--------5-(x7)--2-(x7)--7-------|
E|-----------3-------0---------------|
 Why you wait here on me



BRIDGE:
e|-----------------|
B|-----------------|
G|-----------5-----|
D|--2--$-5-$-5--0--|
A|--2----5---3--0--|
E|--0----3---------|

e|-----------------------------|
B|-----------------------------|
G|--6---------------- -5-------| 
D|--6-(x12)--7------$--5-(x3)--|
A|--4--------7-(x3)-- -3-------|
E|-----------5-----------------|
 She only owns you
 This woman I knew
 Nothing up her sleeve
 Controls all you do
 My hate, true love
 Split it apart
 She controls you
 Now watch what you say
 She only owns you
 Throw it away


************************************

| /   slide up
| \   slide down
| h   hammer-on
| p   pull-off
| ~   vibrato
| +   harmonic
| x   Mute note
| b   Bend
| pb  Pre-bend
| br  Bend release
| pbr Pre-bend release
| brb Bend release bend

************************************
Tap to rate this tab
# A B C D E F G H I J K L M N O P Q R S T U V W X Y Z