Guitaretab - guitar tabs
Song name
# A B C D E F G H I J K L M N O P Q R S T U V W X Y Z

Mondo Generator - Fuck You Im Free tab

Okay, This is my first tab that Iíve ever submitted, so I may have the number of times
hit each chord (as well as timing) off by a little bit, but for the most part this is
I havenít included the solo here, but itís hardly a difficult solo, so you shouldnít 
too much trouble figuring out it for yourself. For any questions/comments or anything else
would like to say, just contact me at: thedevil123456789@hotmail.com

Tuning:C,F,Bb,Eb,G,C
[ Tab from: http://www.guitaretab.com/m/mondo-generator/85433.html ]
                 Main Riff
E|------------------------------------------|
B|------------------------------------------|
G|--------9-777-----7-----------------------|
D|-99---7-9-777-777-7-----------------------|
A|-99---7-7-555-777-5-----------------------|
E|-77-0-5-------555-------------------------|
                Verse Riff
E|------------------------------------------|
B|------------------------------------------|
G|-777777-999999----------------------------|
D|-777777-999999-(then play Main Riff once)-|
A|-555555-777777----------------------------|
E|------------------------------------------|
          Riff Right Before Chorus
E|------------------------------------------|
B|------------------------------------------|
G|-777777-999999-11-------------------------|
D|-777777-999999-11(x7)---------------------|
A|-555555-777777-9--------------------------|
E|------------------------------------------|
         Bridge(before the sung part)
E|------------------------------------------|
B|------------------------------------------|
G|--------12-11----10-----------------------| (x2)
D|-1111---12-11-99-10-1010------------------|
A|-1111---10-9--99-8--1010------------------|
E|-9-9--0-------77----8-8-------------------|
              Bridge(sung part)
E|------------------------------------------|
B|------------------------------------------|
G|--------------77777777777-----------------|
D|-9999999999-7-77777777777-----------------|
A|-9999999999-7-55555555555-----------------|
E|-7777777777-5-----------------------------|
              Bridge(contíd)
E|------------------------------------------|
B|------------------------------------------|
G|---------------777777-999999-11-----------|
D|-7-99999999999-777777-999999-11(x7)-------|
A|-7-99999999999-555555-777777-9------------|
E|-5-77777777777----------------------------|

Well, there ya go, thatís everything minus the solo. PLEASE RATE!
And keep posting Mondo songs!
Related for Fuck You Im Free tab