Song name
# A B C D E F G H I J K L M N O P Q R S T U V W X Y Z

Mondo Generator - Cocaine Rodeo tab

Verse:
Bass
 G|------------------------------||
 D|------------------------------||
 A|-----2--3--3--3--3---3------2-||
 E|-3-5------3--3--3--3----3-5---||

Guitar
 e|-------------------------------||
 B|-5-4--5-4--5-4---5-4--5-4--5-4-||
 G|-------------------------------||
 D|-------------------------------||
 A|-------------------------------||
 E|-------------------------------||


Chorus:
Bass
 G|---------|-----------------------------------------------||
 D|---------|-----------------------------------------------||
 A|-3-3-3-3-|-3-3-3-3-2-0---------------2--2--2--2---0-2-3--||
 E|---------|--------------3-3-3-3-2-0----------------------||


Ending:
Bass
 G|-----|---------------------------------||
 D|-----|---------------------------------||
 A|---1-|-3-3-3-3-2-0---------------0-2-3-||
 E|-2---|---------------3-3-3-3-2-0-------||
Tap to rate this tab
# A B C D E F G H I J K L M N O P Q R S T U V W X Y Z