Song name
# A B C D E F G H I J K L M N O P Q R S T U V W X Y Z

Moneen - With This Song I Will Destroy Myself tab

Artist:    Moneen
Song:      With This Song I Will Destroy Myself
Album:     Are We Really Happy With Who We Are Right Now
Tabbed By: D-man22 (red__bloopers@hotmail.com)

This song's got two guitar parts cuz of Kenny and Hippy so I split it to the left and
ear. If you listen to the song on your ipod or watever and just listen in one ear you'll
wat i mean. I'll take you through step by step so that each left and right are playing 
the same time.

Standard Tuning: EADGBe
Palm Muted ...
Slide Up /

Intro:
Right
Clean Up Stroke
e|--0--|
B|--7--|
G|--8--|
D|--9--|
A|--11-|
E|--0--|

Verse:
Right
e|-------------------------------------|
B|-------------------------------------|
G|--9-9999999999999999-----------------|
D|--9-9999999999999999-6-6-6664-44-444-|x2
A|--7-7777777777777777-6-6-6664-44-444-|
E|---------------------4-4-4442-22-222-|
      ................

Left
e|----------------------------------|
B|-----------------991010109--------|
G|--999998------------------9119119-|
D|--------966666666-----------------|
A|----------------------------------|
E|----------------------------------|
    ...............

Right
e|----------------------------------------------------|
B|----------------------------------------------------|
G|--9999111111111313131314141414----------------------|
D|--9999111111111313131314141414-6-6-6664-44-444------|x2
A|--77779-9-9-9-1111111112121212-6-6-6664-44-444------|
E|-------------------------------4-4-4442-22-222------|
    ............................

Left
e|----------------------------------------------------------------------------------------|
B|-------------------991010-109--------------------------------------991010-109-----------|
G|--9999888844446666-----------911-9-11-9---999988881313131314141414-----------911-9-11-9-|
D|--xxxxxxxxxxxxxxxx------------------------xxxxxxxx-x-x-x-x-x-x-x-x----------------------|
A|--7777666622224444------------------------777766661111111112121212----------------------|
E|----------------------------------------------------------------------------------------|
    ................                         ........................

Chorus
Right
e|----------------------------------|  |----------------------------------|
B|------------------999-999-999-999-|  |------------------9-9-999---------|
G|------------------xxx-xxx-xxx-xxx-|  |------------------x-x-xxx---------|
D|--777-777-777-777-999-999-999-999-|x3|--777-777-777-777-9-9-999-666-666-|
A|--777-777-777-777-999-999-999-999-|  |--777-777-777-777-9-9-999-666-666-|
E|--555-555-555-555-777-777-777-777-|  |--555-555-555-555-7-7-777-444-444-|

Left
e|----------------------------------------------|
B|----------------------------------------------|
G|--222-222-222-222-131313-131313-131313-131313-|
D|--222-222-222-222--x-x-x--x-x-x--x-x-x--x-x-x-|x3
A|--000-000-000-000-111111-111111-111111-111111-|
E|----------------------------------------------|

e|----------------------------------------|
B|----------------------------------------|
G|--222-222-222-222-13-13-131313-99999999-|
D|--222-222-222-222--x--x--x-x-x-xxxxxxxx-|
A|--000-000-000-000-11-11-111111-77777777-|
E|----------------------------------------|

Pre-Verse
Right
e|------------------------------------------------------------------------------------------|
B|------------------------------------------------------------------------------------------|
G|--9999111111111313131314141414----------------9999111111112121212116161616----------------|
D|--xxxx-x-x-x-x-x-x-x-x-x-x-x-x6-6-6664-44-444-xxxx-x-x-x-x-x-x-x-x-x-x-x-x6-6-6664-44-444-|
A|--7777-9-9-9-911111111121212126-6-6664-44-444-7777-9-9-9-919-19-19141414146-6-6664-44-444-|
E|------------------------------4-4-4442-22-222-----------------------------4-4-4442-22-222-|

Left
e|----------------------------------------------------------------------------------------|
B|-------------------991010-109--------------------------------------991010-109-----------|
G|--9999888844446666-----------911-9-11-9---999988881313131314141414-----------911-9-11-9-|
D|--xxxxxxxxxxxxxxxx------------------------xxxxxxxx-x-x-x-x-x-x-x-x----------------------|
A|--7777666622224444------------------------777766661111111112121212----------------------|
E|----------------------------------------------------------------------------------------|
    ................                         ........................

Verse 2
Right
e|-------------------------------------|
B|-------------------------------------|
G|--9-9999999999999999-----------------|
D|--9-9999999999999999-6-6-6664-44-444-|x2
A|--7-7777777777777777-6-6-6664-44-444-|
E|---------------------4-4-4442-22-222-|
      ................

Left
e|----------------------------------|
B|-----------------991010109--------|
G|--999998------------------9119119-|
D|--------966666666-----------------|
A|----------------------------------|
E|----------------------------------|
    ...............

Right
e|----------------------------------------------------|
B|----------------------------------------------------|
G|--9999111111111313131314141414----------------------|
D|--9999111111111313131314141414-6-6-6664-44-444------|x2
A|--77779-9-9-9-1111111112121212-6-6-6664-44-444------|
E|-------------------------------4-4-4442-22-222------|
    ............................

Left
e|----------------------------------------------------------------------------------------|
B|-------------------991010-109--------------------------------------991010-109-----------|
G|--9999888844446666-----------911-9-11-9---999988881313131314141414-----------911-9-11-9-|
D|--xxxxxxxxxxxxxxxx------------------------xxxxxxxx-x-x-x-x-x-x-x-x----------------------|
A|--7777666622224444------------------------777766661111111112121212----------------------|
E|----------------------------------------------------------------------------------------|
    ................                         ........................

Chorus
Right
e|----------------------------------|  |------------------------------------|
B|------------------999-999-999-999-|  |------------------9-9-999-----------|
G|------------------xxx-xxx-xxx-xxx-|  |------------------x-x-xxx-----------|
D|--777-777-777-777-999-999-999-999-|x3|--777-777-777-777-9-9-999-666-666-2-|
A|--777-777-777-777-999-999-999-999-|  |--777-777-777-777-9-9-999-666-666-2-|
E|--555-555-555-555-777-777-777-777-|  |--555-555-555-555-7-7-777-444-444-0-|

Left
e|----------------------------------------------|
B|----------------------------------------------|
G|--222-222-222-222-131313-131313-131313-131313-|
D|--222-222-222-222--x-x-x--x-x-x--x-x-x--x-x-x-|x3
A|--000-000-000-000-111111-111111-111111-111111-|
E|----------------------------------------------|

e|----------------------------------------------------7---------|
B|-----------------------------------------------------79-\-5-9-|
G|--222-222-222-222-13-13-131313-99999999-----------------------|
D|--222-222-222-222--x--x--x-x-x-xxxxxxxx-2---------------------|
A|--000-000-000-000-11-11-111111-77777777-2-(Let Ring)----------|
E|----------------------------------------0---------------------|

Solo
Clean
Right
e|-------------|  |--------------0-------------------------------|
B|-------------|  |------------12------------12-17-16-12-14-12-9-|
G|---9-11-8----|  |-----14-13-9-------14-13-9--------------------|
D|---------9---|x2|---11------------11---------------------------|
A|----------11-|  |--0-------------0-----------------------------|
E|--0----------|  |----------------------------------------------|

e|-------------|  |---------------0--------------------------------|
B|-------------|  |-------------12-------------12-17-16-12-14-12-9-|
G|-----11-8----|  |------14-13-9--------14-13-9--------------------|
D|--7/9----9---|x2|--9/11-----------9/11---------------------------|
A|----------11-|  |------------------------------------------------|
E|-------------|  |------------------------------------------------|

e|-------------------------------|-------------------------------------------------|
B|-------------------------------|------------12-17------------12-17-16-12-14-12-9-|
G|-----11-8-------11-8---11/13-9-|-----14-13-9----------14-13-9--------------------|
D|--7/9----9---7/9----9----------|-9/11-------------9/11---------------------------|
A|----------11---------11--------|-------------------------------------------------|
E|-------------------------------|-------------------------------------------------|

e|---------------------------------|-------------0--------------------------------------|
B|---------------------------------|-----------12-------------1212-12---12-12---12-1212-|
G|---9-11-8-----9-11-8---11-9-11-9-|----14-13-9-------14-13-9-1313-13/1413-13/1413-1313-|
D|---------9----------9------------|--11------------11----------------------------------|
A|----------11---------11----------|-0-------------0------------------------------------|
E|--0----------0-------------------|----------------------------------------------------|

Right       Left
e|----0-|  |---0-|
B|--12--|  |--9--|
G|------|  |-----| They Alternate for x8.
D|------|  |-----|
A|------|  |-----|
E|------|  |-----|

Outro
Right
e|-----------------------------------------------------------|
B|-----------------------------------------------------------|
G|--44-66--------------------1616-1313-----------------------|
D|--44-66-66-7-777-777-777777-x-x--x-x-44-66-7-777-777-44444-|x3
A|--22-44-66-7-777-777-7777771414-1111-44-66-7-777-777-44444-|
E|--------44-5-555-555-555555----------22-44-5-555-444-22222-|
Left
e|Starts--|--0-000-000-000000-----------------0-000--------------------|
B|where---|--0-000-000-000000-----------------0-000--------------------|
G|right---|--2-222-222-222222-1414-1313-99-44-2-222-444-66666-88-99-44-|
D|plays-7-|--2-222-222-222222--x-x--x-x-xx-xx-2-222-xxx-xxxxx-xx-xx-xx-|x3
A|------7-|--0-000-000-000000-1212-1111-77-22-0-000-222-44444-66-77-22-|
E|------5-|--x-xxx-xxx-xxxxxx-----------------x-xxx--------------------|
Right
e|-------------------------------------------|
B|-------------------------------------------|
G|--44-66--------------------1616-1313-------|
D|--44-66-66-7-777-777-777777-x-x--x-x-44-66-|
A|--22-44-66-7-777-777-7777771414-1111-44-66-|
E|--------44-5-555-555-555555----------22-44-|

e|------------------|
B|------------------|
G|------------------|
D|--7-777-777-77777-|x4
A|--7-777-777-77777-|
E|--5-555-555-55555-|
Left
e|--0-000-000-00000-|
B|--0-000-000-00000-|
G|--2-222-222-22222-|
D|--2-222-222-22222-|x4
A|--0-000-000-00000-|
E|--x-xxx-xxx-xxxxx-|
Right
e|------------------|  |-------------------------------------------------|
B|------------------|  |-------------------------------------------------|
G|------------------|  |-------------------------------------------------|
D|--7-777-777-77777-|x2|-7-777-7-777-----77777-7-777-----77777-------777-|
A|--7-777-777-77777-|  |-7-777-7-777-----77777-7-777-----77777-------777-|
E|--5-555-555-55555-|  |-5-555-5-555-----55555-5-555-----55555-------555-|
Left
e|------------------|  |-0-000-------000-------0-000-000-------0-000-----|
B|------------------|  |-0-000-------000-------0-000-000-------0-000-----|
G|------------------|  |-2-222-------222-------2-222-222-------2-222-----|
D|------------------|x2|-2-222-------222-------2-222-222-------2-222-----|
A|------------------|  |-0-000-------000-------0-000-000-------0-000-----|
E|------------------|  |-x-xxx-------xxx-------x-xxx-xxx-------x-xxx-----|
Keeps alternating until the end of the song.
Tap to rate this tab
# A B C D E F G H I J K L M N O P Q R S T U V W X Y Z