Song name
# A B C D E F G H I J K L M N O P Q R S T U V W X Y Z

Moneen - Are You Really Happy With Who You Are Right Now tab

-------------------------------------------------------------------------------
			     Are You Really Happy With Who You Are - Moneen
-------------------------------------------------------------------------------
Tabbed by: Hellmutt J. Cork
Email: strateightysix@aol.com

Tuning: standard

GUITAR ONE (CLEAN)
e|----------------------------------|
B|----------------------------------|
G|-88888888888888888888888888888888-|
D|-99999999999999999999999999999999-|
A|-666666666666666677777777xxxxxxxx-|
E|-------------------------77777777-| x 4

GUITAR 2 (DISTORTION)(starts on the end of third and forth time guitar one plays its clean riff) 
e|---------|-------------------------------------|
B|---------|-------------------------------------|
G|-4----4--|-9-9-9-9-9-9-9-9---------------------|
D|-4----4--|-9-9-9-9-9-9-9-9-9--9--9--9--9--9--9-|
A|-2----2--|-7-7-7-7-7-7-7-7-9--9--9--9--9--9--9-|
E|---------|-----------------7--7--7--7--7--7--7-|

PART 2 OF VERSE: 
GUITAR 1 (DISTORTION)x 2
e|------------------------------------------------------------------|
B|-----------------9999999977777777---------------------------------|
G|-8888888888888888888888886666666688888888888888884444444488888888-|
D|-xxxxxxxxxxxxxxxx6666666644444444xxxxxxxxxxxxxxxxxxxxxxxxxxxxxxxx-|
A|-6666666666666666----------------66666666666666662222222266666666-|
E|------------------------------------------------------------------|

GUITAR 2 (DISTORTION)
e|------------------------------------------------------------------|
B|------------------------------------------------------------------|
G|-8888888888888888999999994444444488888888888888889999999944444444-|
D|-xxxxxxxxxxxxxxxxxxxxxxxxxxxxxxxxxxxxxxxxxxxxxxxxxxxxxxxxxxxxxxxx-|
A|-6666666666666666777777772222222266666666666666667777777722222222-|
E|------------------------------------------------------------------|

e|------------------------------------------------------------------|
B|------------------------------------------------------------------|
G|-888888888888888899999999-4~-4~--8888888888888888-9-9-9-9---------|
D|-xxxxxxxxxxxxxxxxxxxxxxxx-4~-4~--xxxxxxxxxxxxxxxx-9-9-9-9-9-9-9-9-|
A|-666666666666666677777777-2~-2~--6666666666666666-7-7-7-7-9-9-9-9-|
E|----------------------------------------------------------7-7-7-7-|

CHORUS:
GUITAR 1 (DISTORTION) x 4
e|------------------------------|
B|------------------------------|
G|-4~-/-13-\-11-\-9-\-8-/-9-\-8-|
D|-4~-/--x-\--x-\-x-\-x-/-x-\-x-|
A|-2~-/-11-\--9-\-7-\-6-/-7-\-6-|
E|------------------------------|

GUITAR 2 (DISTORTION)
e|----------|
B|----------|
G|----------|
D|-6~----9~-|
A|-6~----9~-|
E|-4~----7~-|


 PRE VERSE: (DISTORTION)x 3
e|------------------------------------------------------------------|
B|-----------------9999999977777777---------------------------------|
G|-8888888888888888888888886666666688888888888888884444444488888888-|
D|-xxxxxxxxxxxxxxxx6666666644444444xxxxxxxxxxxxxxxxxxxxxxxxxxxxxxxx-|
A|-6666666666666666----------------66666666666666662222222266666666-|
E|------------------------------------------------------------------|

 VERSE 2: X 4
e|----------------------------------|
B|----------------------------------|
G|-88888888888888888888888888888888-|
D|-99999999999999999999999999999999-|
A|-666666666666666677777777xxxxxxxx-|
E|-------------------------77777777-|
 PM..................................

CHORUS

OUTRO: 
(FIGURE IT OUT). IT'S LIKE THRE NOTES SLIDING AROUND.

....ARE WE REALLY HAPPY WITH.....(1:55) PLAY THIS A FEW TIMES
e|-------------------------|
B|-------------------------|
G|----------------44-4444--|
D|-66-6-4-4-------44-4444--|
A|-66-6-4-4-22-22-22-2222--|
E|-44-4-2-2-00-00----------|

THEN PLAY THIS A FEW TIMES WHILE THE OTHER GUITAR PALM MUTE THE SAME THING.
e|-----------------------------------------------------------------|
B|-----------------------------------------------------------------|
G|-------------------------------------------------4-4-4-4-4-4-4-4-|
D|-6-6-6-6-6-6-6-6-4-4-4-4-4-4-4-4-2-2-2-2-2-2-2-2-4-4-4-4-4-4-4-4-|
A|-6-6-6-6-6-6-6-6-4-4-4-4-4-4-4-4-2-2-2-2-2-2-2-2-2-2-2-2-2-2-2-2-|
E|-4-4-4-4-4-4-4-4-2-2-2-2-2-2-2-2-0-0-0-0-0-0-0-0-----------------|

FIGURE OUT THE END IT'S THE SAME CHORDS.


| /  slide up
| \  slide down
| h  hammer-on
| p  pull-off
| ~  vibrato
| +  harmonic
| x  Mute note
===============================================================================
Tap to rate this tab
# A B C D E F G H I J K L M N O P Q R S T U V W X Y Z