Song name
# A B C D E F G H I J K L M N O P Q R S T U V W X Y Z

Moneen - Start To This May Be The End To Another tab

This is only the main chord riff for the first half of the song, I will prolly add more 
it later but this to get you started.

Standard tuning

Intro

Guitars 1 and 2

|-0---|
|-0---|
|-4---| x8
|-x---|
|-2---|
|-0---|

*Pick scraping*

Chorus

Guitars 1 and 2

|-----------------------------------------------------------|
|-----------------------------------------------------------|
|-44-4-4-44-4-4-44-4-4-44-4-4-77-7-7-77-7-7-99-9-9-99-9-9---| x4
|-xx-x-x-xx-x-x-xx-x-x-xx-x-x-xx-x-x-xx-x-x-xx-x-x-xx-x-x---|
|-22-2-2-22-2-2-22-2-2-22-2-2-55-5-5-55-5-5-77-7-7-77-7-7---|
|-----------------------------------------------------------|

Verse

Guitar 1

|-------14---------14-----|
|-----12--12-----12--12---|
|---12---------12---------| x2
|-12---------12-----------|
|-------------------------|
|-------------------------|

Guitars 1 and 2

|-0---|
|-0---|
|-4---| x8
|-x---|
|-2---|
|-0---|

|-0---|
|-0---|
|-7---| x4
|-x---|
|-5---|
|-0---|

|-0---|
|-0---|
|-9---| x4
|-x---|
|-7---|
|-0---|

Guitar 1

|-------14---------14-----|
|-----12--12-----12--12---|
|---12---------12---------| x2
|-12---------12-----------|
|-------------------------|
|-------------------------|

Guitars 1 and 2

|-0---|
|-0---|
|-4---| x8
|-x---|
|-2---|
|-0---|

|-0---|
|-0---|
|-7---| x4
|-x---|
|-5---|
|-0---|

|-0---|
|-0---|
|-9---| x4
|-x---|
|-7---|
|-0---|

Guitar 1

|-------14---------14-----|
|-----12--12-----12--12---|
|---12---------12---------| x2
|-12---------12-----------|
|-------------------------|
|-------------------------|

Guitars 1 and 2

|-0---|
|-0---|
|-4---| x8
|-x---|
|-2---|
|-0---|

|-0---|
|-0---|
|-7---| x4
|-x---|
|-5---|
|-0---|

|-0---|
|-0---|
|-9---| x4
|-x---|
|-7---|
|-0---|

Guitar 1

|-------14---------14-----|
|-----12--12-----12--12---|
|---12---------12---------| x2
|-12---------12-----------|
|-------------------------|
|-------------------------|

Guitars 1 and 2

|-0---|
|-0---|
|-4---| x8
|-x---|
|-2---|
|-0---|

|-0---|
|-0---|
|-7---| x4
|-x---|
|-5---|
|-0---|

|-0---|
|-0---|
|-9---| x4
|-x---|
|-7---|
|-0---|

Interlude

Guitar 1

|---------------------------|
|---------------------------|
|-44-4-4-44-4-4-44-4-44-4---|
|-xx-x-x-xx-x-x-xx-x-x-xx---|
|-22-2-2-22-2-2-22-2-22-2---|
|---------------------------|

Chorus

Guitars 1 and 2

|-----------------------------------------------------------|
|-----------------------------------------------------------|
|-44-4-4-44-4-4-44-4-4-44-4-4-77-7-7-77-7-7-99-9-9-99-9-9---| x4
|-xx-x-x-xx-x-x-xx-x-x-xx-x-x-xx-x-x-xx-x-x-xx-x-x-xx-x-x---|
|-22-2-2-22-2-2-22-2-2-22-2-2-55-5-5-55-5-5-77-7-7-77-7-7---|
|-----------------------------------------------------------|

Verse

Guitar 1

|-------14---------14-----|
|-----12--12-----12--12---|
|---12---------12---------| x2
|-12---------12-----------|
|-------------------------|
|-------------------------|

Guitars 1 and 2

|-0---|
|-0---|
|-4---| x8
|-x---|
|-2---|
|-0---|

|-0---|
|-0---|
|-7---| x4
|-x---|
|-5---|
|-0---|

|-0---|
|-0---|
|-9---| x4
|-x---|
|-7---|
|-0---|

Guitar 1

|-------14---------14-----|
|-----12--12-----12--12---|
|---12---------12---------| x2
|-12---------12-----------|
|-------------------------|
|-------------------------|

Guitars 1 and 2

|-0---|
|-0---|
|-4---| x8
|-x---|
|-2---|
|-0---|

|-0---|
|-0---|
|-7---| x4
|-x---|
|-5---|
|-0---|

|-0---|
|-0---|
|-9---| x4
|-x---|
|-7---|
|-0---|

Guitar 1

|-------14---------14-----|
|-----12--12-----12--12---|
|---12---------12---------| x2
|-12---------12-----------|
|-------------------------|
|-------------------------|

Guitars 1 and 2

|-0---|
|-0---|
|-4---| x8
|-x---|
|-2---|
|-0---|

|-0---|
|-0---|
|-7---| x4
|-x---|
|-5---|
|-0---|

|-0---|
|-0---|
|-9---| x4
|-x---|
|-7---|
|-0---|

Guitar 1

|-------14---------14-----|
|-----12--12-----12--12---|
|---12---------12---------| x2
|-12---------12-----------|
|-------------------------|
|-------------------------|

Guitars 1 and 2

|-0---|
|-0---|
|-4---| x8
|-x---|
|-2---|
|-0---|

|-0---|
|-0---|
|-7---| x4
|-x---|
|-5---|
|-0---|

|-0---|
|-0---|
|-9---| x4
|-x---|
|-7---|
|-0---|

|-0----|
|-0----|
|-11---| x16
|-x----|
|-9----|
|-0----|

Bridge

Guitar 1

|-------------|
|---10----9---|
|--6-----6----| x4
|-7-----7-----|
|-------------|
|-------------|

|--------12---|
|-12-----12---|
|----12--12---|
|-------------|
|-------------|
|-------------|
***************Harmonics

|-------------|
|---10----9---|
|--6-----6----| x4
|-7-----7-----|
|-------------|
|-------------|

|--------12---|
|-12-----12---|
|----12--12---|
|-------------|
|-------------|
|-------------|
***************Harmonics

|-------------|
|---10----9---|
|--6-----6----| x4
|-7-----7-----|
|-------------|
|-------------|

|--------12---|
|-12-----12---|
|----12--12---|
|-------------|
|-------------|
|-------------|
***************Harmonics

|-------------|
|---10----9---|
|--6-----6----| x4
|-7-----7-----|
|-------------|
|-------------|

|--------12---|
|-12-----12---|
|----12--12---|
|-------------|
|-------------|
|-------------|
***************Harmonics

|-------------|
|---10----9---|
|--6-----6----| x4
|-7-----7-----|
|-------------|
|-------------|

|--------12-12-12-12-12---|
|-12-----12-12-12-12-12---|
|----12--12-12-12-12-12---|
|-------------------------|
|-------------------------|
|-------------------------|
*******                     Harmonics

Guitar 2

|---------------------------|
|---------------------------|
|-987-----------------------|
|---------------------------|
|---------7-10-9-8-7---7\---|
|---------------------------|

|-------------------------------12---|
|------------------------12-----12---|
|-987----------------------12---12---|
|---------------------12-----12-12---|
|---------7-10-9-8-7-----------------|
|------------------------------------|
                      ****************Harmonics

|-------------------------------|
|-------------------------------|
|-987---------------------------|
|-----8-7-6---------------------|
|-----------7-10-9-8-7/9\7/10---|
|-------------------------------|

|-------------------------------------|
|-------------------------------------|
|-987-------9-8-7-6----9-8-7-6----9---|
|-----8-7-6---------------------------|
|-------------------------------------|
|-------------------------------------|

Bridge Pt. 2

Guitars 1 and 2

|-------------|
|---10----9---|
|--6-----6----| x4
|-7-----7-----|
|-------------|
|-------------|

|--------12---|
|-12-----12---|
|----12--12---|
|-------------|
|-------------|
|-------------|
***************Harmonics

|-------------|
|---10----9---|
|--6-----6----| x4
|-7-----7-----|
|-------------|
|-------------|

|--------12-12-12-12-12---|
|-12-----12-12-12-12-12---|
|----12--12-12-12-12-12---|
|-------------------------|
|-------------------------|
|-------------------------|
*******                     Harmonics

Climax

Guitars 1 and 2

|---------------------|
|---------------------|
|-444444444444/9999---| x7
|-xxxxxxxxxxxx/xxxx---|
|-222222222222/7777---|
|---------------------|

|-----------------------|
|-----------------------|
|-4444/5555/7777/9999---|
|-xxxx/xxxx/xxxx/xxxx---|
|-2222/3333/5555/7777---|
|-----------------------|

|---------------------|
|---------------------|
|-444444444444/9999---| x2
|-xxxxxxxxxxxx/xxxx---|
|-222222222222/7777---|
|---------------------|

Guitar 1

|-------9b-7---------|
|-77b7---------------|
|--------------7/9---| x4
|--------------------|
|--------------------|

Guitar 2

|---------------------|
|---------------------|
|-444444444444/9999---| x2
|-xxxxxxxxxxxx/xxxx---|
|-222222222222/7777---|
|---------------------|

*Distortion noises*

Guitar 1 and 2

*Pick scraping*

Outro

Guitars 1 and 2

*Pick scraping*

Guitar 1

|-------------|
|---10----9---|
|--6-----6----| x4
|-7-----7-----|
|-------------|
|-------------|

|--------12---|
|-12-----12---|
|----12--12---|
|-------------|
|-------------|
|-------------|
***************Harmonics

|-------------|
|---10----9---|
|--6-----6----| x4
|-7-----7-----|
|-------------|
|-------------|

|--------12---|
|-12-----12---|
|----12--12---|
|-------------|
|-------------|
|-------------|
***************Harmonics

|-------------|
|---10----9---|
|--6-----6----| x4
|-7-----7-----|
|-------------|
|-------------|

|---------|
|-12------|
|----12---|
|---------|
|---------|
|---------|
***********Harmonics

Guitar 2

*Sound effects*

Guitars 1 and 2

*Sound effects or delayed and muted guitar*
Tap to rate this tab
# A B C D E F G H I J K L M N O P Q R S T U V W X Y Z