Song name
# A B C D E F G H I J K L M N O P Q R S T U V W X Y Z

Moneen - How Many Other Girls Are There In The World tab

Help us improve GuitareTab! Take a short survey!
Intro

Guitar 1

|-----------|
|-----------|
|-7--7--5---| x6
|--------7--|
|-----------|
|-----------|

|----------|
|-7--5-----|
|-------7--| x2
|----------|
|----------|
|----------|

|-----------|
|-----------|
|-7--7--5---| x6
|--------7--|
|-----------|
|-----------|

Guitar 2

|---------------------------------------|
|---------------------------------------|
|---------------------------------------|
|---------------------------------------|
|-5-5-5-5-5-5-4-4-4-4-4-4-7-7-7-7-7-7---|
|-3-3-3-3-3-3-2-2-2-2-2-2-5-5-5-5-5-5---|

|----------|
|-7--5-----|
|-------7--| x2
|----------|
|----------|
|----------|

|---------------------------------------|
|---------------------------------------|
|---------------------------------------|
|---------------------------------------|
|-5-5-5-5-5-5-4-4-4-4-4-4-7-7-7-7-7-7---|
|-3-3-3-3-3-3-2-2-2-2-2-2-5-5-5-5-5-5---|

Interlude

Guitar 1

|---444---|
|-22222---|
|-22222---| x3
|---------|
|---------|
|---------|

|---44---|
|-2222---|
|-2222---|
|--------|
|--------|
|--------|

Guitar 2

|---------|
|-33333---|
|-22222---| x5
|---------|
|---------|
|---------|

|--------|
|-3333---|
|-2222---|
|--------|
|--------|
|--------|

Verse

Guitar 1

|-7b--5-----|
|-------7---|
|-----------| x5
|-----------|
|-----------|
|-----------|

Guitar 2

|---------------------------------------|
|---------------------------------------|
|---------------------------------------| x8
|---------------------------------------|
|-14-14-14-14-16-16-13-13-13-13-13-13---|
|-12-12-12-12-14-14-11-11-11-11-11-11---|
.........................................Palm Mute

Pre-Chorus

Guitar 1

|---------------------|
|---------------------|
|---------------------|
|---------------------|
|-5-5-5-55-4-4-4-44---|
|-3-3-3-33-2-2-2-22---|

Guitar 2

|---------------------------------------|
|---------------------------------------|
|---------------------------------------|
|---------------------------------------|
|-55555555-44444444-77777777-99999999---|
|-33333333-22222222-55555555-77777777---|

|---------------------|
|---------------------|
|---------------------|
|---------------------|
|-5-5-5-55-4-4-4-44---|
|-3-3-3-33-2-2-2-22---|

Chorus

Guitar 1

|---------------------------------------|
|---------------------------------------|
|-4-4-44-4-5-5-55-5-9-9-99-9-7-7-77-7---|
|-4-4-44-4-5-5-55-5-9-9-99-9-7-7-77-7---|
|-2-2-22-2-3-3-33-3-7-7-77-7-5-5-55-5---|
|---------------------------------------|

|-------------------------------------|
|-------------------------------------|
|-4-4-44-4-5-5-55-5-9-9-99-9-7-7-77---|
|-4-4-44-4-5-5-55-5-9-9-99-9-7-7-77---|
|-2-2-22-2-3-3-33-3-7-7-77-7-5-5-55---|
|-------------------------------------|

|--------------------------------------------|
|--------------------------------------------|
|-7-7-77-7-9-9-99-9-11-11-1111-11-9-9-99-9---|
|-7-7-77-7-9-9-99-9-11-11-1111-11-9-9-99-9---|
|-5-5-55-5-7-7-77-7-9--9--9-9--9--7-7-77-7---|
|--------------------------------------------|

|---------------------------------|
|---------------------------------|
|-4-4-44-4-5-5-55-5-9-9-99-9-7/---|
|-4-4-44-4-5-5-55-5-9-9-99-9-7/---|
|-2-2-22-2-3-3-33-3-7-7-77-7-5/---|
|---------------------------------|

Guitar 2

|---------------------------------------|
|---------------------------------------|
|-4-4-44-4-5-5-55-5-9-9-99-9-7-7-77-7---|
|-x-x-xx-x-x-x-xx-x-x-x-xx-x-x-x-xx-x---|
|-2-2-22-2-3-3-33-3-7-7-77-7-5-5-55-5---|
|---------------------------------------|

|-------------------------------------|
|-------------------------------------|
|-4-4-44-4-5-5-55-5-9-9-99-9-7-7-77---|
|-x-x-xx-x-x-x-xx-x-x-x-xx-x-x-x-xx---|
|-2-2-22-2-3-3-33-3-7-7-77-7-5-5-55---|
|-------------------------------------|

|--------------------------------------------|
|--------------------------------------------|
|-7-7-77-7-9-9-99-9-11-11-1111-11-9-9-99-9---|
|-x-x-xx-x-x-x-xx-x-x--x--x-x--x--x-x-xx-x---|
|-5-5-55-5-7-7-77-7-9--9--9-9--9--7-7-77-7---|
|--------------------------------------------|

|---------------------------------|
|---------------------------------|
|-4-4-44-4-5-5-55-5-9-9-99-9-7/---|
|-x-x-xx-x-x-x-xx-x-x-x-xx-x-x/---|
|-2-2-22-2-3-3-33-3-7-7-77-7-5/---|
|---------------------------------|

Interlude

Guitar 1

|---------|
|---------|
|-tacet---|
|---------|
|---------|
|---------|

Guitar 2

|---------|
|-33333---|
|-22222---| x3
|---------|
|---------|
|---------|

Verse

Guitar 1

|-7b--5-----|
|-------7---|
|-----------| x5
|-----------|
|-----------|
|-----------|

Guitar 2

|---------------------------------------|
|---------------------------------------|
|---------------------------------------| x3
|---------------------------------------|
|-14-14-14-14-16-16-13-13-13-13-13-13---|
|-12-12-12-12-14-14-11-11-11-11-11-11---|
.........................................Palm Mute

|--------------|
|--------------|
|--------------|
|--------------|
|-14--16--13---|
|-12--14--11---|
................Palm Mute

|---------------------------------------|
|---------------------------------------|
|---------------------------------------| x4
|---------------------------------------|
|-14-14-14-14-16-16-13-13-13-13-13-13---|
|-12-12-12-12-14-14-11-11-11-11-11-11---|
.........................................Palm Mute

Chorus

Guitar 1

|---------------------------------------|
|---------------------------------------|
|-4-4-44-4-5-5-55-5-9-9-99-9-7-7-77-7---|
|-4-4-44-4-5-5-55-5-9-9-99-9-7-7-77-7---|
|-2-2-22-2-3-3-33-3-7-7-77-7-5-5-55-5---|
|---------------------------------------|

|-------------------------------------|
|-------------------------------------|
|-4-4-44-4-5-5-55-5-9-9-99-9-7-7-77---|
|-4-4-44-4-5-5-55-5-9-9-99-9-7-7-77---|
|-2-2-22-2-3-3-33-3-7-7-77-7-5-5-55---|
|-------------------------------------|

|--------------------------------------------|
|--------------------------------------------|
|-7-7-77-7-9-9-99-9-11-11-1111-11-9-9-99-9---|
|-7-7-77-7-9-9-99-9-11-11-1111-11-9-9-99-9---|
|-5-5-55-5-7-7-77-7-9--9--9-9--9--7-7-77-7---|
|--------------------------------------------|

|---------------------------------|
|---------------------------------|
|-4-4-44-4-5-5-55-5-9-9-99-9-7/---|
|-4-4-44-4-5-5-55-5-9-9-99-9-7/---|
|-2-2-22-2-3-3-33-3-7-7-77-7-5/---|
|---------------------------------|

Guitar 2

|---------------------------------------|
|---------------------------------------|
|-4-4-44-4-5-5-55-5-9-9-99-9-7-7-77-7---|
|-x-x-xx-x-x-x-xx-x-x-x-xx-x-x-x-xx-x---|
|-2-2-22-2-3-3-33-3-7-7-77-7-5-5-55-5---|
|---------------------------------------|

|-------------------------------------|
|-------------------------------------|
|-4-4-44-4-5-5-55-5-9-9-99-9-7-7-77---|
|-x-x-xx-x-x-x-xx-x-x-x-xx-x-x-x-xx---|
|-2-2-22-2-3-3-33-3-7-7-77-7-5-5-55---|
|-------------------------------------|

|--------------------------------------------|
|--------------------------------------------|
|-7-7-77-7-9-9-99-9-11-11-1111-11-9-9-99-9---|
|-x-x-xx-x-x-x-xx-x-x--x--x-x--x--x-x-xx-x---|
|-5-5-55-5-7-7-77-7-9--9--9-9--9--7-7-77-7---|
|--------------------------------------------|

|---------------------------------|
|---------------------------------|
|-4-4-44-4-5-5-55-5-9-9-99-9-7/---|
|-x-x-xx-x-x-x-xx-x-x-x-xx-x-x/---|
|-2-2-22-2-3-3-33-3-7-7-77-7-5/---|
|---------------------------------|

Interlude

Guitar 1

|-------------------|
|-7--7--5--7--5-----|
|--------7------7---|
|-------------------|
|-------------------|
|-------------------|

Guitar 2

|-------------------|
|-------------------|
|-7--7--5--7--5-----|
|--------7------7---|
|-------------------|
|-------------------|

Bridge

Guitar 1

|-----------|
|-----------|
|-7--7--5---| x22
|--------7--|
|-----------|
|-----------|

|-7--5------|
|-------7---|
|-----------| x10
|-----------|
|-----------|
|-----------|

|-5-77-9--7-55-9--5-77-9---|
|--------------------------|
|--------------------------|
|--------------------------|
|--------------------------|
|--------------------------|

|-12--14---|
|----------|
|----------| x3
|----------|
|----------|
|----------|

|-7--5--3--5---|
|--------------|
|--------------|
|--------------|
|--------------|
|--------------|

|-7--5--5/3---|
|-------------|
|-------------|
|-------------|
|-------------|
|-------------|

Guitar 2

|---------------------------------------------------|
|---------------------------------------------------|
|---------------------------------------------------|
|---------------------------------------------------|
|-5-5-5-5-5-5-4-4-4-4-4-4-7-7-7-7-7-7-7-7-7-7-7-7---|
|-3-3-3-3-3-3-2-2-2-2-2-2-5-5-5-5-5-5-5-5-5-5-5-5---|

|---------------------------------------|
|---------------------------------------|
|---------------------------------------|
|---------------------------------------|
|-5-5-5-5-5-5-4-4-4-4-4-4-7-7-7-7-7-7---|
|-3-3-3-3-3-3-2-2-2-2-2-2-5-5-5-5-5-5---|

|---------------------------------------------|
|---------------------------------------------|
|---------------------------------------------|
|---------------------------------------------|
|-5-5-5-5-5-5-4-4-4-5-5-5-5-5-5-4-4-4-4-4-4---|
|-3-3-3-3-3-3-2-2-2-3-3-3-3-3-3-2-2-2-2-2-2---|

|-7--5------|
|-------7---|
|-----------| x2
|-----------|
|-----------|
|-----------|

|---------------------------------------|
|---------------------------------------|
|---------------------------------------|
|---------------------------------------|
|-5-5-5-5-5-5-4-4-4-4-4-4-7-7-7-7-7-7---|
|-3-3-3-3-3-3-2-2-2-2-2-2-5-5-5-5-5-5---|

|------------------------------------------------------|
|------------------------------------------------------|
|-7777777777777777-7777777777777777-7777777777777777---|
|-xxxxxxxxxxxxxxxx-xxxxxxxxxxxxxxxx-xxxxxxxxxxxxxxxx---|
|-5555555555555555-4444444444444444-5555555555555555---|
|------------------------------------------------------|

|---------------------------|
|---------------------------|
|---------------------------|
|---------------------------|
|-7-7-7-5-4-4-4-5-7-7-7-5---|
|-5-5-5-3-2-2-2-3-5-5-5-3---|
.......   .....   .....      Palm Mute

|---------------------------|
|---------------------------|
|---------------------------| x3
|---------------------------|
|-7-7-7-7-7-7-5-5-5-5-5-5---|
|-5-5-5-5-5-5-3-3-3-3-3-3---|

|---------------------------|
|---------------------------|
|---------------------------|
|---------------------------|
|-7-7-7-7-7-7-5---5---5/4---|
|-5-5-5-5-5-5-3---3---3/2---|

Outro

Guitar 1

|-7-5-7-5-3---|
|-------------|
|-------------| x9
|-------------|
|-------------|
|-------------|

Guitar 2

|-/---|
|-/---|
|-/---| *pick scrape
|-/---|
|-/---|
|-/---|
Related for How Many Other Girls Are There In The World tab