Song name
# A B C D E F G H I J K L M N O P Q R S T U V W X Y Z

Moneen - Sharks In Danger tab

                                                              SHARKS IN DANGER - Moneen


Tabbed by: maasman (Colton Maas)

Email:coolguybydaylol@hotmail.com

Note: the lyrics i put under the tabs only help to q in when to start the tabs, don't
to play them at the speed of the words under because the speed of the tab and how fast or
the words are song may vary!

Tuning: Normal

Guitar 1: Rhythm
Guitar 2: Lead


GTR 1 and 2
E|-----------------------------------------------------------------------------|
B|------4~--------4~--------6~--------6---------4~--------6/12~----------------|
G|0-0h4-----0-0h4-----0-0h4-----4-0-0-----0-0h4-----0-04--------------(x4)-----|
D|-----------------------------------------------------------------------------|
A|-----------------------------------------------------------------------------|
E|-----------------------------------------------------------------------------|

---------------------------------------------------------------------------------

GTR 2
e|---------------------------------------------------------------------------|
B|0---0---0---0--------------------------------------------------------------|
G|2---1---2---1--------------------------------------------------------------|
D|1---0---1---0--------------------------------------------------------------|
A|---------------------------------------------------------------------------|
E|---------------------------------------------------------------------------|


GTR 1
e|-----------------------------------------------------------------------------|
B|-----------------------------------------------------------------------------|
G|-----------------------------------------------------------------------------|
D|-----------------------------------------------------------------------------|
A|4---8---4---1----------------------------------------------------------------|
E|5---9---5---2---2---22222222-------------------------------------------------|


GTR 1
e|-----------------------------------------------------------------------------|
B|-----------------------------------------------------------------------------|
G|-----------------------------------------------------------------------------|
D|-----------------------------------------------------------------------------|
A|-----------------------------------------------------------------------------|
E|-x-666666444444333333111111---------(x4)-------------------------------------|
                      "as life hangs beside me..."
------------------------------------------------------------------------------

GTR 2
e|-----------------------------------------------------------------------------|
B|-----------------------------------------------------------------------------|
G|-----------------------------------------------------------------------------|
D|2-2-2---2-2-2---2-2-2---2-2-2--------------(x4)------------------------------|
A|1-1-1---1-1-1---1-1-1---1-1-1------------------------------------------------|
E|-----------------------------------------------------------------------------|
    "hands..."

GTR 1
e|---------------------------------------------------------------------------|
B|---------------------------------------------------------------------------|
G|---------------------------------------------------------------------------|
D|---------------------------------------------------------------------------|
A|1-1-1---1-1-1---1-1-1---1-1-1--------------(x4)----------------------------|
E|---------------------------------------------------------------------------|
   "hands..."
--------------------------------------------------------------------------------

GTR 1
e|-----------------------------------------------------------------------------|
B|-----------------------------------------------------------------------------|
G|-----------------------------------------------------------------------------|
D|-----------------------------------------------------------------------------|
A|1-1-111-1-1-111-1-1-111-1-1-111---(x20)--1~----------------------------------|
E|-----------------------------------------------------------------------------|
  "i know your end..."

GTR 2
e|-----------------------------------------------------------------------------|
B|8---8---89---9---910---10---1012---12---12---1210---10---109-----------------|
G|-----------------------------------------------------------------------------|
D|--8---8----8---8-----8----8-------8----8----8------8----8-----8--------------|
A|-----------------------------------------------------------------------------|
E|-----------------------------------------------------------------------------|
   "i know your end..."

GTR 2
e|-----------------------------------------------------------------------------|
B|-9--912---12---1214---14---1414---14---14------------------------------------|
G|-----------------------------------------------------------------------------|
D|--8-----9----9------9----9-------9----9--------------------------------------|
A|-----------------------------------------------------------------------------|
E|-----------------------------------------------------------------------------|
                                                         "your..."
----------------------------------------------------------------------------------

GTR 2
e|---------------------------------------------------------------------------------|
B|12121212121212121212121212121212-------------------------------------------------|
G|---------------------------------------------------------------------------------|
D|-----(u hit “12” 16 times)-------------------------------------------------------|
A|---------------------------------------------------------------------------------|
E|---------------------------------------------------------------------------------|
   "your..."                                       "end..."

GTR 2
e|12121212121212121212121212121212---------------------------------------------|
B|12121212121212121212121212121212---------------------------------------------|
G|-----------------------------------------------------------------------------|
D|-----------------------------------------------------------------------------|
A|-----------------------------------------------------------------------------|
E|-----------------------------------------------------------------------------|
                                 "your..."

GTR 2
e|14141414141414141414141414141414---------------------------------------------|
B|12121212121212121212121212121212---------------------------------------------|
G|-----------------------------------------------------------------------------|
D|-----------------------------------------------------------------------------|
A|-----------------------------------------------------------------------------|
E|-----------------------------------------------------------------------------|

--------------------------------------------------------------------------------

GTR 1 and 2
e|---111#----111#----111#----111#--------------------------------------------|
B|---222#----222#----222#----222#--------------------------------------------|
G|----------------------------------------------------------------(x4)-------|
D|---------------------------------------------------------------------------|
A|1-------1--------1--------1---------1111111111111111-----------------------|
E|-------------------------------------2222222222222222----------------------|
                                                                     "who'll be there to
me how stupid i am..."

---------------------------------------------------------------------------------

GTR 1
e|-----------------------------------------------------------------------------|
B|-----------------------------------------------------------------------------|
G|-----------------------------------------------------------------------------|
D|-----------------------------------------------------------------------------|
A|4---4---4---4---1---1---1---1---4---4---4---4---1---1---1---1----------------|
E|5---5---5---5---2---2---2---2---5---5---5---5---2---2---2---2----------------|
   "who will keep me from lashing out? anxioty choax me like razer wire(x2)..."
----------------------------------------------------------------------------------

GTR 1
e|--------------------------------------------------------------------------------------|
B|--------------------------------------------------------------------------------------|
G|--------------------------------------------------------------------------------------|
D|--------------------------------------------------------------------------------------|
A|111111111111111111111111111111111111111111111111--------------------------------------|
E|-(so you don’t hav 2 count, ther r 48 “1”s)--------(x3)-------------------------------|


GTR 2
e|---------------------------------------------------------------------------|
B|---------------------------------------------------------------------------|
G|---------------------------------------------------------------------------|
D|---------------------------------------------------------------------------|
A|---------------------------------------------------------------------------|
E|222222---------------------------------------------------------------------|


GTR 2
e|------------------------------------------------------------------------------|
B|------------------------------------------------------------------------------|
G|------------------------------------------------------------------------------|
D|---------------------------------------------------------------------(x3)-----|
A|111111333333444444888888111111333333444444666666------------------------------|
E|------------------------------------------------------------------------------|

--------------------------------------------------------------------------------

GTR 1
e|--------------------------------------------------------------------------------------|
B|--------------------------------------------------------------------------------------|
G|--------------------------------------------------------------------------------------|
D|--------------------------------------------------------------------------------------|
A|1-------1-------(x13)---(u hit “!” 26 times, then / \ ) tooshay?----------------------|
E|--------------------------------------------------------------------------------------|
   "wire,raza wire..."

GTR 2
e|-----------------------------------------------------------------------------|
B|11-7-11-8-7-8-9-11-9-8-7-13~--------(x8)-------------------------------------|
G|-----------------------------------------------------------------------------|
D|-----------------------------------------------------------------------------|
A|-----------------------------------------------------------------------------|
E|-----------------------------------------------------------------------------|
   "ware, raza wire..."

----------------------------------------------------------------------------------


“Good Luck”


| /  slide up
| \  slide down
| h  hammer-on
| p  pull-off
| ~  vibrato
| +  harmonic
| x  Mute following notes
| #  palm mute
=============================================================
Tap to rate this tab
# A B C D E F G H I J K L M N O P Q R S T U V W X Y Z