Song name
# A B C D E F G H I J K L M N O P Q R S T U V W X Y Z

Mongol 800 - Message tab

----------------------------------------------------------------------------
			     Message - Mongol 800
----------------------------------------------------------------------------
Tabbed by: Michael "Rudel" Carter II
Email: fa18resource@yahoo.com

Tuning: Standard

Strum the guitar in seqence with the bass drum.
For the Ending, even though it's tabbed correctly, listen to te song to play it right.  
at first.

INTRO
     X 12
e|-------------------------------|
B|-------------------------------|
G|----------555----777-----------|
D|----55----555----777----5xxx5--| X 2
A|----55----333----555----5xxx5--|
E|----33------------------3xxx3--|

CHORUS
e|------------------------------|-------------------------------------|
B|------------------------------|-------------------------------------|
G|--55-55---------77-77---------|---55-55---------77--77/--9\--7\--5--|
D|--55-55--55-55--77-77--55-55--|---55-55--55-55--77--77/--9\--7\--5--| X 2
A|--33-33--55-55--55-55--55-55--|---33-33--55-55--55--55/--7\--5\--3--|
E|---------33-33---------33-33--|----------33-33----------------------|

VERSE
     xxxxxxxxxx PM xxxxxxxxxxxxxxxx
e|-----------------------------------|
B|-----------------------------------|
G|---555555----------777777----------|
D|---555555--555555--777777--555555--|   X 3
A|---333333--555555--555555--555555--|
E|-----------333333----------333333--|

     xxxxxxxxxx PM xxxx Slowly un palm mute
e|--------------------------------------|------------------------------|
B|--------------------------------------|------------------------------|
G|---555555----------777777----9--7--5--|--55-55---------77-77---------|
D|---555555--555555--777777----9--7--5--|--55-55--55-55--77-77--5xxx5--|
A|---333333--555555--555555----7--5--3--|--33-33--55-55--55-55--5xxx5--|
E|-----------333333---------------------|---------33-33---------3xxx3--|

CHORUS
e|------------------------------|-------------------------------------|
B|------------------------------|-------------------------------------|
G|--55-55---------77-77---------|---55-55---------77--77/--9\--7\--5--|
D|--55-55--55-55--77-77--55-55--|---55-55--55-55--77--77/--9\--7\--5--| X 2
A|--33-33--55-55--55-55--55-55--|---33-33--55-55--55--55/--7\--5\--3--|
E|---------33-33---------33-33--|----------33-33----------------------|

VERSE
     xxxxxxxxxx PM xxxxxxxxxxxxxxxx
e|-----------------------------------|
B|-----------------------------------|
G|---555555----------777777----------|
D|---555555--555555--777777--555555--| X 3
A|---333333--555555--555555--555555--|
E|-----------333333----------333333--|

     xxxxxxxxxx PM xxxx Slowly un palm mute
e|--------------------------------------|------------------------------|
B|--------------------------------------|------------------------------|
G|---555555----------777777----9--7--5--|--55-55---------77-77---------|
D|---555555--555555--777777----9--7--5--|--55-55--55-55--77-77--5xxx5--|
A|---333333--555555--555555----7--5--3--|--33-33--55-55--55-55--5xxx5--|
E|-----------333333---------------------|---------33-33---------3xxx3--|


BRIDGE
e|------------------------------|-------------------------------------|
B|------------------------------|-------------------------------------|
G|--55-55---------77-77---------|---55-55---------77--77/--9\--7\--5--|
D|--55-55--55-55--77-77--55-55--|---55-55--55-55--77--77/--9\--7\--5--| X 2
A|--33-33--55-55--55-55--55-55--|---33-33--55-55--55--55/--7\--5\--3--|
E|---------33-33---------33-33--|----------33-33----------------------|

e|-------------------------------|
B|-------------------------------|
G|---55-55---------77-77---------|
D|---55-55--55-55--77-77--5xxx5--|
A|---33-33--55-55--55-55--5xxx5--|
E|----------33-33---------3xxx3--|

e|------------------------------|-------------------------------------|
B|------------------------------|-------------------------------------|
G|--55-55---------77-77---------|---55-55---------77--77/--9\--7\--5--|
D|--55-55--55-55--77-77--55-55--|---55-55--55-55--77--77/--9\--7\--5--| X 2
A|--33-33--55-55--55-55--55-55--|---33-33--55-55--55--55/--7\--5\--3--|
E|---------33-33---------33-33--|----------33-33----------------------|

e|-------------------------------|
B|-------------------------------|
G|---55-55---------77-77---------|
D|---55-55--55-55--77-77--5xxx5--|
A|---33-33--55-55--55-55--5xxx5--|
E|----------33-33---------3xxx3--|

CHORUS ~  Ohhhhhhh ohhhhhhhhhhhh
e|-------------------------------|-------------------------------------|
B|-------------------------------|-------------------------------------|
G|---55-55---------77-77---------|---55-55---------77--77/--9\--7\--5--|
D|---55-55--55-55--77-77--55-55--|---55-55--55-55--77--77/--9\--7\--5--|
A|---33-33--55-55--55-55--55-55--|---33-33--55-55--55--55/--7\--5\--3--|
E|----------33-33---------33-33--|----------33-33----------------------|

ENDING
e|-------------------------------|--------------------------------------|
B|-------------------------------|--------------------------------------|
G|---55-55---------77-77---------|---55-55---------77--77/--9\--7/--12--|
D|---55-55--55-55--77-77--55-55--|---55-55--55-55--77--77/--------------|
A|---33-33--55-55--55-55--55-55--|---33-33--55-55--55--55/--7\--5/--10--|
E|----------33-33---------33-33--|----------33-33-----------------------|

e|----------------|--------------|---------------|---------------|
B|----------------|--------------|---------------|---------------|
G|---12*---11-9---|--7-----------|--------7--9---|----------7*---|
D|----------------|-----10--9*---|--10*----------|--9---10-------|
A|---10*----9-7---|--5-----------|--------5--7---|----------5*---|
E|----------------|------8--7*---|---8*----------|--7----8-------|

e||------------------------|-------------------------|
B||------------------------|-------------------------|
G||--9/----12----7/----12--|--10*----10--9--7--5*----|
D||------------------------|-------------------3*----|
A||--7/----10----5/----10--|---8*-----8--7--5--3*----|
E||------------------------|-------------------------|


| *  ring
| /  slide up
| \  slide down
| h  hammer-on
| p  pull-off
| ~  vibrato
| +  harmonic
| x  Mute note
============================================================================
Tap to rate this tab
 
# A B C D E F G H I J K L M N O P Q R S T U V W X Y Z