Monica - Agel Of Mine tab

-------------------------------------------------------------------------------
			 angel of mine - Monica
-------------------------------------------------------------------------------
Tabbed by:Totim
Email:totziemoron@yahoo.com

 comment

Tuning:

e|-----------------------------------------------------------|
B|-1-----1------1-0-----1--------1--1-----1-0-----1----------|
G|-0---0-0----0-0-0-----0-0------0--0---0-0-0---0-0------0---|
D|---2------2-------0-----0-----------2-------2-----2--------|
A|----------------------2-------------------3-------3--3-----|
E|----------------3------------1---1-------------------------|

e|-------------------------------0-----2---------------------|
B|--1-----1------1-0-----1-------3---3-3---------------3-----|
G|--0---0-0----0-0-0-0---0-0-------0------2-4--------4-4-----|
D|----2------2-------2-----2-----0-----0--0-5------5---------|
A|-----------------2-----3-----------------------------------|
E|------------------------------------------3----------------|

************************************

| /   slide up
************************************
Tap to rate this tab
 
# A B C D E F G H I J K L M N O P Q R S T U V W X Y Z