Monica - U Shouldve Known Better tab

      #----------------------------------PLEASE NOTE---------------------------------#
      #This file is the author's own work and represents their interpretation of the #
      #song. You may only use this file for private study, scholarship, or research. #
      #------------------------------------------------------------------------------#

-------------------------------------------------------------------------------
			     U Shoulda Known Better - Monica
-------------------------------------------------------------------------------

Tabbed by: Blake (100% by ear)
Email: blakeg14@yahoo.com

Tuning: EADGBe (standard)

Tone: I set my Vypyr 15 to Krankstein, (preferably) Rec, and JSX sound great.

I used Audacity to slow down the solo and made sure the notes were dead on. You can use
the instrumental version from Youtube to assist you with the timing:
http://www.youtube.com/watch?v=m9aKhuTTGvw

There is much more vibrato throughout, but I put a few in randomly.

Intro solo starts approx. 0:13 and ends approx. 0:32

e|--------------------------------------------------11---------------------|
B|-----------------------------------------------11----11--14b(16)-14b(16)-|
G|--10b(11)rb10b(11)rb10(11)rb10(11)rb~--13b(15)---------------------------|
D|-------------------------------------------------------------------------|
A|-------------------------------------------------------------------------|
E|-------------------------------------------------------------------------|

e|----------------------------------------------------11-------------------|
B|-14b(16)-14b(16)---------------------------------11----11-14-------------|
G|------------------13b(15)rbp11h13/15-11~--13b(15)------------13p11-13~---|
D|-------------------------------------------------------------------------|
A|-------------------------------------------------------------------------|
E|-------------------------------------------------------------------------|

e|----------------------------------------||
B|-----------------------------------16\0-||
G|-13b(15)rp11----------------------------||
D|-------------13~11h13/15~13h15/16~------||
A|----------------------------------------||
E|----------------------------------------||

Actual Guitar Solo starts approx. 3:05 and ends approx. 3:41

e|----------------------11----14b(16)-14b(16)--14b(16)-14b(16)--13b(15)rb----11~-|
B|-------------------11----11---------------------------------------------14-----|
G|-----------13b(15)-------------------------------------------------------------|
D|-------------------------------------------------------------------------------|
A|-6~-8~-9~----------------------------------------------------------------------|
E|-------------------------------------------------------------------------------|

e|------------11-----------------------------------------------------------------|
B|---------11------------14------------------------------------------------------|
G|-13b(15)-------13b(15)----13rb-13p11h13--13b(15)rbp11---------------------11-8-|
D|------------------------------------------------------13-11\8-8-9-11-11-8------|
A|-------------------------------------------------------------------------------|
E|-------------------------------------------------------------------------------|

e|--------------------13-14-16----14-16-16b(18)-16b(18)-16b(18)\0-19b(21)rb-|
B|-11-9-14-11-14b(16)----------16-------------------------------------------|
G|--------------------------------------------------------------------------|
D|--------------------------------------------------------------------------|
A|--------------------------------------------------------------------------|
E|--------------------------------------------------------------------------|

e|-19-19-18-18-16-16-14-16-16b(18)rbp14-----14-16b(18)rb-14----14-16b(18)-21b(23)\0----||
B|--------------------------------------16------------------16-------------------------||
G|-------------------------------------------------------------------------------------||
D|-------------------------------------------------------------------------------------||
A|-------------------------------------------------------------------------------------||
E|-------------------------------------------------------------------------------------||

Fin.


************************************

| /   slide up
| \   slide down
| h   hammer-on
| p   pull-off
| ~   vibrato
| +   harmonic
| x   Mute note
| b   Bend
| pb  Pre-bend
| br  Bend release
| pbr Pre-bend release
| brb Bend release bend
| (#) tells where to bend to


************************************
Tap to rate this tab
 
# A B C D E F G H I J K L M N O P Q R S T U V W X Y Z