Song name
# A B C D E F G H I J K L M N O P Q R S T U V W X Y Z

Monique Brumby - Fool For You tab

Overdrive
|-----------------------|---------------------|
|-----------------------|------------7-7------|
|--8-8---4-4---6-6---8--|--4-4--6-6--6-6---8--|
|--6-6---2-2---6-6---6--|--2-2--4-4--4-4---6--|
|--6-6---2-2---4-4---6--|--2-2--4-4--------6--|
|-----------------------|---------------------|

Clean
|---------------------------------------------|
|------------------------------9p7------------|
|---------------------------------------------|
|----------------------------------9--6--9----|
|---------------------------------------------|
|---------------------------------------------|

|------------------------------6-------7------|
|--------------------------------7-------7----|
|----------------------------------6-------6--|
|---------------------------------------------|
|------------------------------------9--------|
|---------------------------------------------|

Overdrive
|--------------------------------------|
|--------------------------------------|
|--8--8-8----4--4-4--------------------|
|--8--8-8----4--4-4---4--4-4---2--2-2--|
|--6--6-6----2--2-2---4--4-4---2--2-2--|
|---------------------2--2-2---0--0-0--|

|--------------------------------------|------------|
|--------------------------------------|------------|
|--8--8-8----4--4-4--------------------|------------|
|--8--8-8----4--4-4---4--4-4---2--2-2--|----4--4-4--|
|--6--6-6----2--2-2---4--4-4---2--2-2--|----4--4-4--|
|---------------------2--2-2---0--0-0--|----2--2-2--|

|----------------------------------------|
|----------------------------------------|
|-4-4-4-4-4-4-4-4------------------------|
|-4-4-4-4-4-4-4-4-4-4-4-4-4-4-4-4--------|
|-2-2-2-2-2-2-2-2-4-4-4-4-4-4-4-4--------|  \
|-----------------2-2-2-2-2-2-2-2--------|   \
                                            Repeat this 4
|----------------------------------------|   /
|----------------------------------------|  /
|----------------------------------------|
|-6-6-6-6-6-6-6-6-2-2-2-2-2-2-2-2--------|
|-6-6-6-6-6-6-6-6-2-2-2-2-2-2-2-2--------|
|-4-4-4-4-4-4-4-4-0-0-0-0-0-0-0-0--------|

Clean
|----------------------------------------|
|------------------------------------7---|
|----------------------------------4-----|
|--------------------------------6-------|
|----------------------------------------|
|----------------------------------------|

|---------------------------------------------|
|------------------------------9p7------------|
|---------------------------------------------|
|----------------------------------9--6--9----|
|---------------------------------------------|
|---------------------------------------------|

|------------------------------6-------7------|
|--------------------------------7-------7----|
|----------------------------------6-------6--|
|---------------------------------------------|
|------------------------------------9--------|
|---------------------------------------------|

Overdrive
|--------------------------------------|
|--------------------------------------|
|--8--8-8----4--4-4--------------------|
|--8--8-8----4--4-4---4--4-4---2--2-2--|
|--6--6-6----2--2-2---4--4-4---2--2-2--|
|---------------------2--2-2---0--0-0--|

|--------------------------------------|------------|
|--------------------------------------|------------|
|--8--8-8----4--4-4--------------------|------------|
|--8--8-8----4--4-4---4--4-4---2--2-2--|----4--4-4--|
|--6--6-6----2--2-2---4--4-4---2--2-2--|----4--4-4--|
|---------------------2--2-2---0--0-0--|----2--2-2--|

|----------------------------------------|
|----------------------------------------|
|-4-4-4-4-4-4-4-4------------------------|
|-4-4-4-4-4-4-4-4-4-4-4-4-4-4-4-4--------|
|-2-2-2-2-2-2-2-2-4-4-4-4-4-4-4-4--------|  \
|-----------------2-2-2-2-2-2-2-2--------|   \
                                            Repeat this 4x
|----------------------------------------|   /
|----------------------------------------|  /
|----------------------------------------|
|-6-6-6-6-6-6-6-6-2-2-2-2-2-2-2-2--------|
|-6-6-6-6-6-6-6-6-2-2-2-2-2-2-2-2--------|
|-4-4-4-4-4-4-4-4-0-0-0-0-0-0-0-0--------|


Middle Section
|--------------------------------------|
|--------------------------------------|
|--6--6-6----2--2-2---4--4-4---6--6-6--|
|--6--6-6----2--2-2---4--4-4---6--6-6--|
|--4--4-4----0--0-0---2--2-2---4--4-4--|

|--------------------------------------|
|--------------------------------------|
|------------------------------4--4-4--|
|--6--6-6----2--2-2---4--4-4---4--4-4--|
|--6--6-6----2--2-2---4--4-4---2--2-2--|
|--4--4-4----0--0-0---2--2-2-----------|



|--------------------------------------|
|--------------------------------------|
|--8--8-8----4--4-4--------------------|
|--8--8-8----4--4-4---4--4-4---2--2-2--|
|--6--6-6----2--2-2---4--4-4---2--2-2--|
|---------------------2--2-2---0--0-0--|

|--------------------------------------|-
|--------------------------------------|-
|--8--8-8----4--4-4--------------------|-
|--8--8-8----4--4-4---4--4-4---2--2-2--|-
|--6--6-6----2--2-2---4--4-4---2--2-2--|-
|---------------------2--2-2---0--0-0--|-

Clean
|------7--------------4--------|
|---9---------------4----------|
|-----------------4------------|
|---------------6--------------|
|------------------------------|
|------------------------------|

Overdrive
|--------------------------------------|
|--------------------------------------|
|--8--8-8----4--4-4--------------------|
|--8--8-8----4--4-4---4--4-4---2--2-2--|
|--6--6-6----2--2-2---4--4-4---2--2-2--|
|---------------------2--2-2---0--0-0--|

|--------------------------------------|------------|
|--------------------------------------|------------|
|--8--8-8----4--4-4--------------------|------------|
|--8--8-8----4--4-4---4--4-4---2--2-2--|----4--4-4--|
|--6--6-6----2--2-2---4--4-4---2--2-2--|----4--4-4--|
|---------------------2--2-2---0--0-0--|----2--2-2--|

|----------------------------------------|
|----------------------------------------|
|-4-4-4-4-4-4-4-4------------------------|
|-4-4-4-4-4-4-4-4-4-4-4-4-4-4-4-4--------|
|-2-2-2-2-2-2-2-2-4-4-4-4-4-4-4-4--------|  \
|-----------------2-2-2-2-2-2-2-2--------|   \
                                            Repeat this 7x
|----------------------------------------|   /
|----------------------------------------|  /
|----------------------------------------|
|-6-6-6-6-6-6-6-6-2-2-2-2-2-2-2-2--------|
|-6-6-6-6-6-6-6-6-2-2-2-2-2-2-2-2--------|
|-4-4-4-4-4-4-4-4-0-0-0-0-0-0-0-0--------|

Clean
|-------------4------------|
|---------4-7--------------|
|-------4------------------|
|-----6--------------------|
|---6----------------------|
|--------------------------|




Tap to rate this tab
 
# A B C D E F G H I J K L M N O P Q R S T U V W X Y Z