Guitaretab - guitar tabs
Song name
# A B C D E F G H I J K L M N O P Q R S T U V W X Y Z

Monkees - Tomorrows Gonna Be Another Day tab

intro/verse:
e|-intro---|-----------------------------------------------------------------|
B|---------|-----------------------------------------------------------------|
G|---------|-5-55-55-55-55-55-55-55-----------7-77-77-77-77-77-77------------|
D|-5--3-X8-|-5-55-55-55-55-55-55-55---5--3-X3-7-77-77-77-77-77-77------------|
A|--5--5---|-3-33-33-33-33-33-33-33----5--5---5-55-55-55-55-55-55------------|
E|3--3--3--|-------------------------3--3--3---------------------------------|
After chorus
e|---------------------------------------------------------------------------|
B|---------------------------------------------------------------------------|
G|---------------------------------------------------------------------------|
D|5-5-5555-------------------------------------------------------------------|
A|5-5-5555-543---------------------------------------------------------------|
E|3-3-3333----63-------------------------------------------------------------|
           PM...
Solo
e|----------------------10------10-----10----10-----10-----10-----10--x2-----|
B|13b15TTTTTTTTTT15b13x213b15--13b15--13b15--13b15--13b15--13b15--13b15----x2|
G|---------------------------------------------------------------------------|
D|---------------------------------------------------------------------------|
A|---------------------------------------------------------------------------|
E|---------------------------------------------------------------------------|

Song map:
Intro-X1
Verse-X1
Chorus-(nothing but bass drums and vocals)
After chorus-X2
VerseX1
Chorus-X1
After chorus-X4
Solo-X1
After chorus-X2
Verse-X1
After chorus-X4
Outro-(On the record it fades out, at a show, I ended with a G powerchord with O.D on. 
the 5th after chorus end.)
[ Tab from: http://www.guitaretab.com/m/monkees/108385.html ]
Related for Tomorrows Gonna Be Another Day tab
×
Tomorrows Gonna Be Another Day