Guitaretab - guitar tabs
Song name
# A B C D E F G H I J K L M N O P Q R S T U V W X Y Z

Monkees - Pleasant Valley Sunday tab

this is the correct intro to this song; yet another slice of genius from a band who 
didn't play their own instruments.....it's definitely a tricky little f---er; listening to 
song is penultimate to nailing this riff.

e----------------------------------------------------------------------------|
b----------------------------------------------------------------------------|
g----------------------------------------------------------------------------|
d----7-------5s4p0-----2------0---4h5p4p0---7------5s4p0-----2-----0-4h5p4p0-|
a--0------0---------0------0--------------------0---------0-----0------------|
E----------------------------------------------------------------------------|

[ Tab from: http://www.guitaretab.com/m/monkees/12741.html ]
                                           Amaj for 4 measures (4/4 time)
               (with intro riff in backround for last 2 of those 4 measures)
e------------------------------------------5--------------------------------|
b------------------------------------------5--------------------------------|
g------------------------------------------6--------------------------------|
d----7-------5s4p0-----2------0--4h5p4p0---7--------------------------------|
a---------0---------0------0---------------7--------------------------------|
E------------------------------------------5--------------------------------|


 then G for 2 measures
e----3-----------------------------------------------------------------------|
b----3-----------------------------------------------------------------------|
g----4-----------------and the rest is history somewhere else on this--------|
d----5---------------------------------website-------------------------------|
a----5-----------------------------------------------------------------------|
E----3-----------------------------------------------------------------------|

with love and good luck,
great scott
Related for Pleasant Valley Sunday tab
×
Best way to learn
"Pleasant Valley Sunday"