Monkees - Daydream Believer tab

 E -----------------------------------------|
 A------------------------------------------|
 D------------------------------------------|
 G-17--17--19-17-17--16---------------------|
 B-17--17--19--19--17-15--------------------|
 E------------------------------------------|

  Keep  going with the rhythm!


 E -----------------------------------------|
 A------------------------------------------|
 D------------------------------------------|
 G-17--17--19-17-17--16---------------------|
 B-17--17--19--19--17-15--------------------|
 E------------------------------------------|

 E -----------------------------------------|
 A------------------------------------------|
 D------------------------------------------|
 G-17--17--19-17-17--16---------------------|
 B-17--17--19--19--17-15--------------------|
 E------------------------------------------|
Tap to rate this tab
 
# A B C D E F G H I J K L M N O P Q R S T U V W X Y Z