Song name
# A B C D E F G H I J K L M N O P Q R S T U V W X Y Z

Monkees - Mary Mary tab

Monkees
Mary Mary
Tuning: Standard
Transcribed by Soch Hean

Intro Riff:
|-10--10--10--10--7-7-7-7------------------|----------7---------|
|-10--10--10--10--7-7-7-7-9b10=------------|----------7---------|
|--------------------------------9b11rp7---|-----9b11---7b7.5---|
|------------------------------------------|------------------9-|
|------------------------------------------|--------------------|
|------------------------------------------|--------------------|

Verse:
B      E      B        E
Mary, Mary, where you goin' to?
B      E     B    E
Mary, Mary, can I go too

Bridge:
E         F#   E       F#
This one thing I will vow ya
E          F#           E    F#     B
I'd rather die than to live without ya

Chorus:
Mary, Mary, where you goin' to?
(0:34)
|-10--10--10--10--7-7-7-7--------------7---------7-------------|
|-10--10--10--10--7-7-7-7--------------7---------7-------------|
|-------------------------9b11--9p7-------7-9b11---7b7.5-------|
|-----------------------------------9--------------------9-----|
|--------------------------------------------------------------|
|--------------------------------------------------------------|

Verse 2:
B      E     B       E
Mary, Mary, tell me truly
B          E      B        E
What did I do to make you leave me
E           F#     E      F#
Whatever it was I didn't mean to

Bridge:
E           F#         E        F#
You know I never would try and hurt ya

Chorus:
Mary, Mary, where you goin' to?

|-10--10--10--10--7-7-7-7----------------7------------------------|
|-10--10--10--10--7-7-7-7----------------7------------------------|
|-------------------------9b11--7b7.5-------7-9b11-9--7b7.5-------|
|-------------------------------------9---------------------9-----|
|-----------------------------------------------------------------|
|-----------------------------------------------------------------|

F#               E
What more, Mary, can I do
    F#                E
To prove my love is truly yours?
     F#                    G#                 E  F#   B  E  B  E
I've done more now than a clear-thinkin' man would do


Verse 3:
B      E     B        E
Mary, Mary, it's not over
B          E  B       E
Where you go, I will follow
 E     F#        E     F#
'Til I win your love again
E           F#
And walk beside you
E          F#
But until then


Chorus:
Mary, Mary, where you goin' to?
|-10--10--10--10--7-7-7-7---------------------------------|
|-10--10--10--10--7-7-7-7---------------------------------|
|-------------------------9b11--9p7---7-9b11-9-7----------|
|-----------------------------------9------------9-7------|
|---------------------------------------------------------|
|---------------------------------------------------------|

Mary, Mary, where you goin' to?
|----------------|
|----------------|
|-/9-9--/9-9-----|
|-/9-9--/9-9-----|
|----------------|
|----------------|

Mary, where you goin' to?
|----------------|
|----------------|
|-/9-9--/9-9-----|
|-/9-9--/9-9-----|
|----------------|
|----------------|

Outro:
Mary, Mary, Mary, Mary, Mary, where you goin' to?
|----------------|
|----------------|
|-/9-9--/9-9-----|
|-/9-9--/9-9-----|
|----------------|
|----------------|

Chords:
E:    022100
F#:   244322
B:    x2444x
G#:   466544
Tap to rate this tab
# A B C D E F G H I J K L M N O P Q R S T U V W X Y Z