Song name
# A B C D E F G H I J K L M N O P Q R S T U V W X Y Z

Monkey Majik - Change tab

-------------------------------------------------------------------------------
			     Change - Monkey Majik
-------------------------------------------------------------------------------
Tabbed by: Wellen Change
Email: you really don't need it.

Tuning:

e|---------------------------------------------------------------------------|
B|---------------------------------------------------------------------------|
G|------------------------------------------------------------------------5--|
D|-------------------------------------------------------------------5-7----7|
A|---0-0-5p3-0-0-0-0-0-0-0-0-0-0------7-3/-0-3/---0h30-0-0-3-5-7-------------|
E|---------------------------------------------------------------------------|

e|---------------------------------------------------------------------------|
B|-------------------------------------------------8-10-10-10-10-8-----------|
G|-----------------------------------------------9-----------------9---------|
D|---9----9-----9---------9--------------------7---------------------7-------|
A|---7--7---7------7--------------0-0-3-0-3-5--------------------------7-7---|
E|---------------------------------------------------------------------------|

e|---------------------------------------------------------------------------|
B|--10-8---8----10p8-----8-8----------------5-8-8-10-8-8-8h10-8-8h10-8-8-8h10|
G|-------9-----------9-------9-7----------7----------------------------------|
D|----------------------------------7-5-7------------------------------------|
A|---------------------------------------------------------------------------|
E|---------------------------------------------------------------------------|

e|---------------------------------------------------------------------------|
B|-8---8----8/10-8---------------------------------------5-------------------|
G|---9-------------9-7-5-7-7b10br7p5---------------5---7---7p5--7/9-7/9------|
D|-----------------------------------7-7-7-7-5h7-7---7-----------------------|
A|---------------------------------------------------------------------------|
E|---------------------------------------------------------------------------|

e|---------------------------------------------------------------------------|
B|----5-------------------------------------------------5--5-8-5-8-----------|
G|--7---7p5-5------------------------------------55---5--7-------------------|
D|------------7-7------------------------------5----7------------------------|
A|-----------------77-5h7p5-3--------3-5-7-5-7-------------------------------|
E|----------------------------5----5-----------------------------------------|

e|---------------------------------------------------------------------------|
B|---101010888555------------------------------------------------------------|
G|---------------777555-7b9-7-5----------------------------------------------|
D|------------------------------7---------5----------------------------------|
A|-------------------------------------------7-5--7--5-7-5-x-----------------|
E|---------------------------------------------------------------------------|

e|---------------------------------------------------------------------------|
B|---------------------------------------------------------------------------|
G|---------------------------------------------------------------------------|
D|-----------------------5-5/7-5/7-5/7---------------------------------------|
A|--0h3p0---0-3-5-7-5-0------------------------------------------------------|
E|---------------------------------------------------------------------------|



************************************

| /   slide up
| \   slide down
| h   hammer-on
| p   pull-off
| ~   vibrato
| +   harmonic
| x   Mute note
| b   Bend
| pb  Pre-bend
| br  Bend release
| pbr Pre-bend release
| brb Bend release bend

************************************
Tap to rate this tab
# A B C D E F G H I J K L M N O P Q R S T U V W X Y Z