Monkey Majik - I Miss You tab

Main Riff/Verse:
E|----------------------------------------|
B|----------------------------------------|
G|-----0---0-0--0---0----------0----------|
D|----0---0-0--0---0----------0-----------|
A|--10---2-3s-5--s7--s3--2h3s5------------|
E|----------------------------------------|
Try to just slide along the frets on the 5th string/A for the notes

h = hammer-on
s = slide

That just repeats until it changes to
E|----------------------------------------|
B|----------------------------------------|
G|----0---0----0--0-----------------------|
D|---0---0----0--0------------------------|
A|--8---7---6---5--x3---------------------|
E|----------------------------------------|

E|------------------------------------------------------------------|
B|------------------------------------------------------------------|
G|----0---0-----------0---0---0---0------0---0------------0---------|
D|---0---0-----------0---0---0---0------0---0------------0----------|
A|--8---7---6-------8---7---6---5------8---7------3p233s5-----------|
E|------------------------------------------------------------------|


E|-3----2---0----------------0----2-----------|
B|-3----3---1----------------1----3-----------|
G|-0----2---0----------0--0--0----2-----------|
D|-0----0---2---------2--2---2----0-----------|
A|-2--------3----0h2h3--2----0----------------|
E|-3------------------------------------------|

Get the timing and number of times chords are repeated by song.

In some random parts he plays the top 3 strings (EGB) open, from Eminor. He plays Eminor
at the end as well.

There are some chord variations in chorus I'm not sure about. Sorry. This is all I know 
of the song :/

Concerns/questions
Contact me: guetaminute@hotmail.com
Tap to rate this tab
 
# A B C D E F G H I J K L M N O P Q R S T U V W X Y Z