Song name
# A B C D E F G H I J K L M N O P Q R S T U V W X Y Z

Monkey Majik - Closer To You tab

-------------------------------------------------------------------------------
			     Closer to You - Monkey Majik
-------------------------------------------------------------------------------
Tabbed by: guetaminute
Email: guetaminute@hotmail.com

Again, just the intro/main riff/verse. Sorry guys. Hopefully the staff will accept this lol

Tuning:

e|------------------------------------------------|
B|------------------------------------------------|
G|-----7-7-x-7-7--7--7-777---6-6-x-6-6--6--6-666--|
D|-----5-5-x-5-5--5--5-555---4-4-x-4-4--4--4-444--|
A|-----7-7-x-7-7--7--7-777---5-5-x-5-5--5--5-555--|
E|------------------------------------------------|

e|-----------9-7--------------------------------------------------------------------|
B|---7---10-------10---7------------------------------------------------------------|
G|----------------------------------------------------------------------------------|
D|----------------------------------------------------------------------------------|
A|----------------------------------------------------------------------------------|
E|----------------------------------------------------------------------------------|



************************************

| /   slide up
| \   slide down
| h   hammer-on
| p   pull-off
| ~   vibrato
| +   harmonic
| x   Mute note
| b   Bend
| pb  Pre-bend
| br  Bend release
| pbr Pre-bend release
| brb Bend release bend

************************************
Tap to rate this tab
 
# A B C D E F G H I J K L M N O P Q R S T U V W X Y Z