Song name
# A B C D E F G H I J K L M N O P Q R S T U V W X Y Z

Monkey Majik - Long Shot Penny tab

-------------------------------------------------------------------------------
			     LONG SHOT PENNY - Monkey Majik
-------------------------------------------------------------------------------

Album: Sorahamarude/Sora Wa Marude
Tabbed by: GuetaMinute
Email: guetaminute@hotmail.com

Tuning: Standard
Just the intro and distorted riff, don't know anything else on the song lol, sorry

e|-------------------------------------------------------|
B|-------------------------------------------------------|
G|-----------------------------------9---7---6--4--2--4--|
D|-9--11---9--11--9---12--11---------0---0---0--0--0--0--|
A|-0--0----0--0---0---0---0------------------------------|
E|-------------------------------------------------------|

Keep strumming those 2-string open A and open D chords repeatedly in a consistent pace, 
like the song.

Other riff:
e|-----------------------------------------------------------------------------------|
B|------------10-9------------10-9---------------------------------------------------|
G|--6--7-6----------6--7-6-----------------------------------------------------------|
D|-----------------------------------------------------------------------------------|
A|-----------------------------------------------------------------------------------|
E|-----------------------------------------------------------------------------------|


Pretty sure the chorus chords are A and D respectively, but they could be variations of
those two chords. Root is DEFINITELY A and D, though, much like the intro riff

************************************

| /   slide up
| \   slide down
| h   hammer-on
| p   pull-off
| ~   vibrato
| +   harmonic
| x   Mute note
| b   Bend
| pb  Pre-bend
| br  Bend release
| pbr Pre-bend release
| brb Bend release bend

************************************
Tap to rate this tab
 
# A B C D E F G H I J K L M N O P Q R S T U V W X Y Z