Monkey Majik - Between The Lines tab

-------------------------------------------------------------------------------
			     Between the Lines - Monkey Majik
-------------------------------------------------------------------------------
Album: thank you
Tabbed by: GuetaMinute
Email: guetaminute@hotmail.com

Tuning: Standard

Main Riff/Chorus/Intro:
e|--6-6-----4-4----4-4-------6--6-6--|
B|--6-7-----4-4----4-6-------6--6-6--|
G|--6-6-----4-5----4-5-------6--6-6--|
D|--6-8-----4-6----4-6-------6--6-6--|
A|--6h6-----4-6----4h4-------8--8-8--|
E|----------4h4--------------6--6-6--|


Acoustic Riff
e|-------------------------------------|
B|-------------------------------------|
G|-------------------------------------|
D|--------8----10/11--10--8--6-6h8-\3--|
A|-------9-----------------------------|
E|-----11------------------------------|

e|----------------------------------|
B|----------------------------------|
G|-----------6-8/10--8--6-5--6/8\6--|
D|--------8-------------------------|
A|------9---------------------------|
E|----------------------------------|

Verse:
e|--6---6---4---4-------------------------------------------------------------------|
B|--6---7---4---6-------------------------------------------------------------------|
G|--6---6---5---5-------------------------------------------------------------------|
D|--6---8---6---6-------------------------------------------------------------------|
A|--8---6---6---4-------------------------------------------------------------------|
E|--6-------4-----------------------------------------------------------------------|

Timing and times repeated through song like always. Try to add some chord hammer-
ons like in the intro

Pre-chorus:
e|--6---8---6---4------6---8---6---4-----------------------------------------------------|
B|--6---9---7---6------6---9---7---4-----------------------------------------------------|
G|--6---8---6---5------6---8---6---5-----------------------------------------------------|
D|--6---10--8---6------6---10--8---6-----------------------------------------------------|
A|--8---8---6---4------8---8---6---6-----------------------------------------------------|
E|--6------------------6-----------4-----------------------------------------------------|

Lead plays the chords strumming them down slowly and nicely while rhythm plays them with 
the palm-muting and faster, jazzier, whatever you wanna call it.

Kicks into chorus again, then there's a clean rhythm riff
e|-----------------------------------------------------------------------------------|
B|---11---11--13---------------------------------------------------------------------|
G|------------------10---------------------------------------------------------------|
D|---8----8-/-10---------------------------------------------------------------------|
A|------------------8----------------------------------------------------------------|
E|-----------------------------------------------------------------------------------|

That's pretty much the whole song.

************************************

| /   slide up
| \   slide down
| h   hammer-on
| p   pull-off
| ~   vibrato
| +   harmonic
| x   Mute note
| b   Bend
| pb  Pre-bend
| br  Bend release
| pbr Pre-bend release
| brb Bend release bend

************************************
Tap to rate this tab
 
# A B C D E F G H I J K L M N O P Q R S T U V W X Y Z