Song name
# A B C D E F G H I J K L M N O P Q R S T U V W X Y Z

Monkey Majik - Fly tab

Intro and Verse(Both parts)

Rhythm:
E|--------------------------------------------------------------------|
B|--------------------------------------------------------------------|
G|-------6-7---------7s9--7-6-7------6-7--7s9--9s11-------------------|
D|--4--7-------4--7--------------4--7---------------------------------|
A|-5----------------------------5-------------------------------------|
E|--------------------------------------------------------------------|
This only plays once during the verse/intro riff

Lead:
E|------------------------------------------------------------------------|
B|------------------------------------------------------------------------|
G|----------0--------0-------9--7---7\------------------------------------|
D|---------7------9-------7-(7)-7---7\------------------------------------|
A|-(0)0h5------7----(7)7h9--------9(9)------------------------------------|
E|------------------------------------------------------------------------|

After Verse:
Lead/Electric (Clean)
E|-------------------------------------------------------------|
B|--878787--7878787--------------------------------------------|
G|--777777--7777777--------------------------------------------|
D|-------------------------------------------------------------|
A|-------------------------------------------------------------|
E|-------------------------------------------------------------|

Rhythm/Acoustic
E|-3----|
B|-5----|
G|-4----|
D|-5---
A|-3----|
E|------|
Get the timing by song. It's easy, lol

Then it's the intro/verse lead riff before kicking into
Pre-Chorus: (Rhythm)
E|--7-7--7--7-77--9-9--9--9-9-9---------|
B|--8-8--8--8-88--1010-10-101010--------|
G|--9-9--9--9-99--1111-11-111111--------|
D|--9-9--9--9-99--1111-11-111111--------|
A|--7-7--7--7-77--9-9--9--9-9-9---------|
E|--------------------------------------|

Pre-Chorus (Lead)
E|--------------------------------------|
B|--------------------------------------|
G|-7----------------9-------------------|
D|-5----------------7-------------------|
A|-7----------------9-------------------|
E|--------------------------------------|
Same way as rhythm, only different chords. Too lazy to put them more than once lol
Timing once again through song

Then ends with
E|--------|
B|--------|
G|-6------|
D|-5------|
A|-7------|
E|--------| Keep strumming the chord along with the song until it changes to chorus

Chorus:
E|-7-7-5--5--5-5--5-5--3--3--3-3----|
B|-8-8-5--5--5-5--7-7--3--3--3-3----|
G|-9-9-6--6--6-6--6-6--4--4--4-4----|
D|-9-9-7--7--7-7--7-7--5--5--5-5----|
A|-7-7-7--7--7-7--5-5--5--5--5-5----|
E|-----5--5--5-5-------3--3--3-3----|
Strum the A (577655) and G (355433) chords up and down and try to mix in some palm-muted 
strums as well to make it sound like the song.


Take me hoooome:
Electric clean/rhythm:
E|-------------------------------------------------------------|
B|--878787--7878787---10--8-7-78---10--77----------------------|
G|--777777--7777777--/11-\9-7-77--/9--\87----------------------|
D|-------------------------------------------------------------|
A|-------------------------------------------------------------|
E|-------------------------------------------------------------|

Lead
E|---3---------------5--------------------------------------------|
B|---5---------------7--------------------------------------------|
G|---4---------------6--------------------------------------------|
D|---5---------------7--------------------------------------------|
A|---3---------------5--------------------------------------------|
E|----------------------------------------------------------------|

A backup electric clean guitar is playing the 10th fret on B in a jazzy/funky style 
(palm-muting the string then playing the note repeatedly etc. kinda hard to explain how, 
just listen to the song you'll hear it)

AND Blaise plays the rhythm pre-chorus chords throughout this.

Then it's this tiny little fill of a solo
E|--------------------------------------------------|
B|-------3--5--3--5br3------------------------------|
G|--2h4-----------------4---------------------------|




That's pretty much the whole song.
Questions/concerns/etc contact me Guetaminute@hotmail.com
Tap to rate this tab
 
# A B C D E F G H I J K L M N O P Q R S T U V W X Y Z