Monkey Majik - Goin Places tab

While they're singing the chorus/intro, all Blaise does is this:
E|------------------------------------------------------|
B|------------------------------------------------------|
G|------------------------------------------------------|
D|---66666666666666666666666666666666666666666666666666-|
A|------------------------------------------------------|
E|------------------------------------------------------|

Slightly palm-muting that note

Then it kicks into the main riff/verse:
Lead
E|------------------------------------------------------------|
B|------------------------------------------------------------|
G|-------8--6--44-----8--6--44---s8--6--4p3h4p3h4-s6----------|
D|-----6----------6-6----------6----------------------666-----|
A|------------------------------------------------------------|
E|------------------------------------------------------------|

Rhythm
E|-4-4-xxxx--4-4-xxxx--6-6-xxxx--66-44--4------------------------------------|
B|-4-4-xxxx--5-5-xxxx--7-7-xxxx--77-55--4------------------------------------|
G|-4-4-xxxx--4-4-xxxx--6-6-xxxx--66-44--4------------------------------------|
D|-6-6-xxxx--6-6-xxxx--8-8-xxxx--88-66--6------------------------------------|
A|-6-6-xxxx--4-4-xxxx--6-6-xxxx--66-44--6------------------------------------|
E|-4-4-xxxx------xxxx------xxxx---------4------------------------------------|

x = strike all strings with your left hand/hand on neck muting the strings up and down

Solo (don't know the rhythm chords to it, sorry)
E|-----------------------------------------------------|
B|--s9~~~~--9--7-54---s9~~~---9-7--s12--9~~~-----------|
G|-----------------------------------------------------|
D|-----------------------------------------------------|
A|-----------------------------------------------------|
E|-----------------------------------------------------|

~ = vibrato

E|-------------------------------------------------------------------7--9s-|
B|--s9~~~--9--7-54-2-4h5p4------------------s9~~~--9-7--s12-9---9--7-------|
G|------------------------------4--6--4------------------------------------|
D|---------------------------s6--------------------------------------------|
A|-------------------------------------------------------------------------|
E|-------------------------------------------------------------------------|

Last note/9s refers to just sliding back from 9 to end the solo with a nice concluding slide

The rest of the song is pretty much all of this.
Tap to rate this tab
 
# A B C D E F G H I J K L M N O P Q R S T U V W X Y Z