Song name
# A B C D E F G H I J K L M N O P Q R S T U V W X Y Z

Monkey Majik - Political Believerlive tab

-------------------------------------------------------------------------------
			     POLITICAL BELIVER - Monkey Majik
-------------------------------------------------------------------------------
Tabbed by: guetaminute
Email: guetaminute@hotmail.com
Album: SPADE

Tuning: Standard

This is from the latest LIVEversion from the westview DVD
http://www.youtube.com/watch?v=__OIoAwHphk&feature=mfu_in_order&list=UL

Intro/Main Riff (Rhythm):
e|---------------------------------------10h12-12---12-10-10--12--12---12p10-----------|
B|---------------------------------------10-10-10---10-10-10--10--10---1010------------|
G|---11--x-x-11-11-11-x-x-11-x-11--11----11-11-11---11-11-11--11--11---1111------------|
D|-------------------------------------------------------------------------------------|
A|-------------------------------------------------------------------------------------|
E|-------------------------------------------------------------------------------------|

Just repeat that riff, that's all there is to it

Intro/Main Riff (Lead): Play it clean first, or with a bit of crunch, then go to lead
e|--------------------------------------------------------------------|
B|--------------------------------------------------------------------|
G|---7-7--7-7-7-7-7--6--6--6--6-6--6---4-4-4--4--4--4--6---6-6-6-6-6--|
D|---7-7--7-7-7-7-7--7--7--7--7-7--7---4-4-4--4--4--4--7---7-7-7-7-7--|
A|---5-5--5-5-5-5-5--7--7--7--7-7--7---2-2-2--2--2--2--7---7-7-7-7-7--|
E|-------------------5--5--5--5-5--5-------------------5---5-5-5-5-5--|

Verse (only Lead)
e|---------------------------------------------------------------------------------------|
B|---7---7---7--7--7---7----5--5--4---4--------------------------------------------------|
G|---x---x---x--x--x---x----x--x--x---x--------------------------------------------------|
D|---7---7---7--7--7---7----5--5--4---4--------------------------------------------------|
A|---5---5---5--5--5---5----3--3--2---2--------------------------------------------------|
E|---------------------------------------------------------------------------------------|
Repeat until pre-chorus
Try muting G with your index finger that is on A string.

Pre-chorus (only lead)
e|---3---3----3--3-----------5-5---5---5----5--|
B|---3---3----3--3-----------5-5---5---5----5--|
G|---4---4----4--4-----------6-6---6---6----6--|
D|---5---5----5--5-----------7-7---7---7----7--|
A|---5---5----5--5------/----7-7---7---7----7--|
E|---3---3----3--3-------------5--5----5----5--|

Chorus:
e|----7---7---7--7---------------------------------------------------------------------|
B|----8---8---8--8-----7----7---7---7--------------------------------------------------|
G|----7---7---7--7-----x----x---x---x--------------------------------------------------|
D|----9---9---9--9-----7----7---7---7--------------------------------------------------|
A|----7---7---7--7-----5----5---5---5--------------------------------------------------|
E|-------------------------------------------------------------------------------------|

Chorus ends three times, all three differently in rhythm (lead plays a G octave power 
chord on the 10th fret on A on all three)
Ends in rhythm:
e|-10------------------------10---------------------------------|
B|-10------------------------12---------------------------------|
G|-11-x9-(End 1)-------------12-x9-(End 2)--------7-------------|
D|------------------------------------------------x-------------|
A|------------------------------------------------5-x9-(End 3)--|
E|--------------------------------------------------------------|


Last chorus (lead plays the chorus chords but with gain/distortion)
Rhythm:
e|-------------------------------------------------------------------------------------|
B|-------------------------------------------------------------------------------------|
G|--4-------6---7----------------4-------6---7------11---------------------------------|
D|--------------------7----------------------------------------------------------------|
A|--2-------4---5----------------2-------4---5------9----------------------------------|
E|--------------------5----------------------------------------------------------------|
Rhythm End 3 in this chorus ending.

Conclusion (lead):
e|--------------------------------------------------------|
B|--------------------------------------------------------|
G|----6--6--6--7-------2-2-2-2-2-2----4--4-4--4--4--4--4--|
D|----x--x--x--x-------2-2-2-2-2-2----5--5-5--5--5--5--5--|
A|----4--4--4--5-------0-0-0-0-0-0----5--5-5--5--5--5--5--|
E|------------------------------------3--3-3--3--3--3--3--|

Conclusion (rhythm):
e|---10h12---12---12---12----10---14---12---10--12--|
B|---10-10---10---10---10----10---10---10---10--10--|
G|---11-11---11---11---11----11---11---11---11--11--|
D|--------------------------------------------------|
A|--------------------------------------------------|
E|--------------------------------------------------|




Main riff/intro is used multiple times throughout the song after chorus ending

************************************

| /   slide up
| \   slide down
| h   hammer-on
| p   pull-off
| ~   vibrato
| +   harmonic
| x   Mute note
| b   Bend
| pb  Pre-bend
| br  Bend release
| pbr Pre-bend release
| brb Bend release bend

************************************
Tap to rate this tab
 
# A B C D E F G H I J K L M N O P Q R S T U V W X Y Z