Monkey Majik - Broke Down tab

Album: TIME
E-mail: Guetaminute@hotmail.com

Intro/verse/most of song:
e|--7-7-7-7-777--7--7---7--777----5--5--5--555----7--7--77777-----------------------------|
B|--8-8-8-8-888--7--7---7--777----5--5--5--555----7--7--77777-----------------------------|
G|--7-7-7-7-777--7--7---7--777----5--5--5--555----8--8--88888-----------------------------|
D|--9-9-9-9-999--7--7---7--777----5--5--5--555----7--7--77777-----------------------------|
A|--7-7-7-7-777--9--9---9--999----7--7--7--777----9--9--99999-----------------------------|
E|-0-------------7--7---7--777----5--5--5--555----7--7--77777-----------------------------|

Solo:
e|----------------------------------------------10-------7-------------------|
B|-------------------------------------------8------8h10---------------------|
G|-----------------7--9----12-11--9---7h9-------------------9--/9-88/9--/11--|
D|-------------7/9------------------------9----------------------------------|
A|-------5h6h7---------------------------------------------------------------|
E|-5h6h7---------------------------------------------------------------------|

e|---------------------------------------------------------------------|
B|-----0---0----0---0-0---0----0-0-0--0---0--0-0-----------------------|
G|----/12--11---9---9/12--11---9-9/11-11--9--7-7------5-5---5-5--55-5--|
D|--------------------------------------------------7---7-x-7x7-x77-7--|
A|---------------------------------------------------------------------|
E|---------------------------------------------------------------------|

e|------12---11---------------------------------------------------------------------|
B|-----/13---12---------------------------------------------------------------------|
G|----------------------------------------------------------------------------------|
D|----------------------------------------------------------------------------------|
A|----------------------------------------------------------------------------------|
E|----------------------------------------------------------------------------------|

Chorus:
e|---5--5--5----------------7--7-7----7--777--|
B|---5--5--5----7---7-777---7--7-7----8--888--|
G|---5--5--5----7---7-777---7--7-7----7--777--|
D|---5--5--5----7---7-777---7--7-7----9--999--|
A|---7--7--7----5---5-555---9--9-9----7--777--|
E|---5--5--5----------------7--7-7------------|
Tap to rate this tab
 
# A B C D E F G H I J K L M N O P Q R S T U V W X Y Z