Song name
# A B C D E F G H I J K L M N O P Q R S T U V W X Y Z

Monkey Majik - Nijiiro No Sakana Live tab

-------------------------------------------------------------------------------
			     NIJIIRO NO SAKANA - Monkey Majik
-------------------------------------------------------------------------------
Tabbed by: guetaminute
Email: guetaminute@hotmail.com

Tuning: Standard

Intro (Rhythm):
e|-----------------------------------------------------------------------|
B|-----------------------------------------------------------------------|
G|-------9---9----9---9------9---9----9-----9-------9---9----9----9---9--|
D|-----9---9----9---9------7---7----7----7--------9---9----9----9-----7--|
A|-----------------------------------------------------------------------|
E|-----------------------------------------------------------------------|

Chorus (rhythm)
e|---------------------------------------------------------------------------------|
B|--------------------5------------------------------------------------------------|
G|----9-------6-------6------8-----------------------------------------------------|
D|----9-------7-------6------9-----------------------------------------------------|
A|----7-------7-------4------9-----------------------------------------------------|
E|---(0)------5--------------7-----------------------------------------------------|

Lead:
e|---------------------------------------------------|
B|---------------------------------------------------|
G|--9---11--13----8--9-----9---11---13---14-13---11--|
D|---------------------------------------------------|
A|--7---9---11----6--7-----7---9----11---12-11---9---|
E|---------------------------------------------------|

e|-------------------------------------------------|
B|-------------------------------------------------|
G|---9---11--13---8--9----9-------8--9-----11--8---|
D|-------------------------------------------------|
A|---7---9---11---6--7----7-------6--7-----9---6\--|
E|-------------------------------------------------|

Verse (rhythm)
e|-------------------------------------------------------------------------------|
B|-------------------------------------------------------------------------------|
G|---9--------9------------------------------------------------------------------|
D|---9--------7------------------------------------------------------------------|
A|---7--------7------------------------------------------------------------------|
E|-------------------------------------------------------------------------------|
Repeat strumming until chorus starts again; end verse with A power chord.

Breakdown/I dont know what you call it but it's not verse nor chorus lol
Lead (after doing the Chorus riff)
e|--------------------------------------------------------|
B|--------------------------------------------------------|
G|---9---------14----11--11/13----------11-13--11------8--|
D|--------------------------------------------------------|
A|---7---------12----9---9/-11----------9--11--9-------6--|
E|--------------------------------------------------------|

e|-----------------------------------------------------------------------------------|
B|-----------------------------------------------------------------------------------|
G|--8-/-13-------11--------9---------------------------------------------------------|
D|-----------------------------------------------------------------------------------|
A|--6-/-11----\--9---------7---------------------------------------------------------|
E|-----------------------------------------------------------------------------------|

Rhythm
e|----------------------------------------------------------------------------------|
B|----------5-----------------------------------------------------------------------|
G|--8-------6---6------9---8--------------------------------------------------------|
D|--9-------6---7------9---9--------------------------------------------------------|
A|--9-------4---7------7---9--------------------------------------------------------|
E|--7-----------5----------7--------------------------------------------------------|

e|----------------------------------------------------------------------------------|
B|---5------------------------------------------------------------------------------|
G|---6----3--------6----------------------------------------------------------------|
D|---6----4--------7------------10--------------------------------------------------|
A|---4----4--------7------------10--------------------------------------------------|
E|--------2--------5------------8---------------------------------------------------|


Then it goes to verse rhythm riff; finally going into another chorus and the end.

************************************

| /   slide up
| \   slide down
| h   hammer-on
| p   pull-off
| ~   vibrato
| +   harmonic
| x   Mute note
| b   Bend
| pb  Pre-bend
| br  Bend release
| pbr Pre-bend release
| brb Bend release bend
Tap to rate this tab
 
# A B C D E F G H I J K L M N O P Q R S T U V W X Y Z