Song name
# A B C D E F G H I J K L M N O P Q R S T U V W X Y Z

Monkey Majik - I Was Waiting tab

-------------------------------------------------------------------------------
			     I WAS WAITING - Monkey Majik
-------------------------------------------------------------------------------
Tabbed by: guetaminute
Email: guetaminute@hotmail.com

Tuning: Standard
Album: eastview

Intro/verse(lead)
e|------------------------------------|
B|------------------------------------|
G|------------------------------------|
D|------7-7--7-8-8--8-4-4--4-2-2------|
A|-----/9-9--9\7-7--7\5-5--5\4-4---0--|
E|------------------------------------|

Rhythm
e|-----------------------------------------------------|
B|-----------------------------------------------------|
G|--11--13h14--------11--13h14-------------------------|
D|-------------11--------------9--11h12--11--11h12p11--|
A|-----------------------------------------------------|
E|-----------------------------------------------------|

3rd guitar fill in verse/intro (also the same one in the end/third main riff)
e|---------------------------------------------------------------------------|
B|---------------------------------------------------------------------------|
G|---------------------------------------------------------------------------|
D|---------------------------------------------------------------------------|
A|---9/12-12---12\11-11---11/14--14---14\12-12--11\9-------------------------|
E|---------------------------------------------------------------------------|



Pre-chorus power chords w/ distortion (both guitars; or one does the harmonics while the 
other does the power chords
e|------------------------------------------------------------------|
B|------------------------------------------------------------------|
G|----11-11--(9)----11-11--(9)-(9)--11-11--(9)-(9)--11-11--(9)-(9)--|
D|----11-11--(9)----11-11--(9)-(9)--11-11--(9)-(9)--11-11--(9)-(9)--|
A|----9--9----7+----9--9----7+--7+--9--9----7+--7+--9--9----7+--7+--|
E|------------------------------------------------------------------|


Pre-chorus clean (rhythm)
e|-----------------------------------------------------|
B|-----------------------------------------------------|
G|-----------------------------------------------------|
D|-----------------------------------------------------|
A|----9-9-9---11-11-11---12\---9-9-9---11-11-11---12/--|
E|-----------------------------------------------------|

Pre-chorus clean (lead)
e|-------------------------------------------------------------------------------------|
B|----7--7--7---7--7--7---7---7--------------------------------------------------------|
G|----7--7--7---7--7--7---7---7--------------------------------------------------------|
D|----7--7--7---7--7--7---7---7--------------------------------------------------------|
A|----5--5--5---5--5--5---5---5--------------------------------------------------------|
E|-------------------------------------------------------------------------------------|

Chorus lead:
e|-------------------2--2--2--2--2--2----------------------------------------------------|
B|----7--7---6--6----2--2--2--2--2--2----------------------------------------------------|
G|----7--7---6--6----2--2--2--2--2--2----------------------------------------------------|
D|----7--7---6--6----4--4--4--4--4--4----------------------------------------------------|
A|----5--5---4--4----4--4--4--4--4--4----------------------------------------------------|
E|-------------------2--2--2--2--2--2----------------------------------------------------|
*Chorus rhythm plays the 3rd mainriff/outro riff, it's at the top


The very last note has delay, and it's the 14th fret on the A string sliding down, but
it's just the 3rd main riff once again.


************************************

| /   slide up
| \   slide down
| h   hammer-on
| p   pull-off
| ~   vibrato
| +   harmonic
| x   Mute note
| b   Bend
| pb  Pre-bend
| br  Bend release
| pbr Pre-bend release
| brb Bend release bend

************************************
Tap to rate this tab
 
# A B C D E F G H I J K L M N O P Q R S T U V W X Y Z