Song name
# A B C D E F G H I J K L M N O P Q R S T U V W X Y Z

Monkey Majik - Mahou No Kotoba tab

Email: guetaminute@hotmail.com

Tuning: Standard (capo at 4th fret)
I'll tab it as if the capo weren't there, meaning I'll place the 4th fret instead of 
open strings. It's pretty easy tho

Intro
Lead
e|---7---6-----------------7----6-----------------7----6---------------------|
B|-----------6h7p6-6h7/-------------6h7p6-6h7---------------6h7p6h7-7/9\7-6--|
G|-----4---4-------------4----4---4-------------4----4---4-------------------|
D|---------------------------------------------------------------------------|
A|---------------------------------------------------------------------------|
E|---------------------------------------------------------------------------|

e|----7----6---------------7----6-------------|
B|--------------6h7p6h7--------------6h7p6h7--|
G|--4----4----4----------4----4----4----------|
D|--------------------------------------------|
A|--------------------------------------------|
E|--------------------------------------------|

Rhythm (this is what rhythm plays the whole song, just 3 chords)
e|---7--------4-------6---------------------------------------------------------------|
B|---7--------6-------7---------------------------------------------------------------|
G|---4--------6-------8---------------------------------------------------------------|
D|---4--------6-------8---------------------------------------------------------------|
A|---6--------4-------6---------------------------------------------------------------|
E|---7--------------------------------------------------------------------------------|

Verse/rap Lead
e|--4---------4------4------4-------6---------6--------6--------6----------|
B|------7---------7-----7------7---------7---------7--------7--------7-----|
G|----6----6----6--6---6--6---6--6-----4----4----4---4----4---4----4----4--|
D|-------------------------------------------------------------------------|
A|-------------------------------------------------------------------------|
E|-------------------------------------------------------------------------|


e|--4--4--4-4---4--4--4-4--------|
B|--6--7--7/9---6--7--7/9-----7--|
G|----------------------------4--|
D|-------------------------------|
A|-------------------------------|
E|-------------------------------|

Chorus lead *rhythm chorus are just the 3 chords
e|-----7----------4--------6--------6--------------------------------------------------|
B|----------7--------6---------7--------7----------------------------------------------|
G|--------4---4-----4--4-----6---6----6---6--------------------------------------------|
D|-------------------------------------------------------------------------------------|
A|-------------------------------------------------------------------------------------|
E|-------------------------------------------------------------------------------------|

In some parts the lead chorus changes to this
e|---7---------4----------7----6----4---6----------------------------------------------|
B|--------7---------6------------------------------------------------------------------|
G|------4---4-----4---4------4---4-----4---4-------------------------------------------|
D|-------------------------------------------------------------------------------------|
A|-------------------------------------------------------------------------------------|
E|-------------------------------------------------------------------------------------|

OR

e|---7---------4----------4---------4--------------------------------------------------|
B|--------7---------6----------7---------7---------------------------------------------|
G|------4---4-----4---4------4---4-----4---4-------------------------------------------|
D|-------------------------------------------------------------------------------------|
A|-------------------------------------------------------------------------------------|
E|-------------------------------------------------------------------------------------|

But the first variation is mostly played

Near the end a third guitar does this cool little jazzy clean fill
Palm-muted
e|-------------------------------------------|
B|------7---------7------------7--------7----|
G|--6h8---8---6h8---8------6h8---8---6h8--8--|
D|--6h8-------6h8----------6h8-------6h8-----|
A|-------------------------------------------|
E|-------------------------------------------|



************************************

| /   slide up
| \   slide down
| h   hammer-on
| p   pull-off
| ~   vibrato
| +   harmonic
| x   Mute note
| b   Bend
| pb  Pre-bend
| br  Bend release
| pbr Pre-bend release
| brb Bend release bend

************************************
Tap to rate this tab
 
# A B C D E F G H I J K L M N O P Q R S T U V W X Y Z