Monkey Majik - Turn tab

Tuning: Standard (capo at 4th fret)
Pretty fun, simple song. I'm not sure the way I'm playing it is EXACTLYY the same way 
Blaise is, but it sounds just right.

Rhythm only plays a small part in the intro.

It's less confusing if I tab it as if there were no capo (open strings and whatnot) but 
the capo's at 4th fret)

Lead intro/verse
e|---------------------------------------1--------------------------------------------|
B|--------1h3------3----------5----------1--------------------------------------------|
G|--------0--------0----------0----------2--------------------------------------------|
D|-----2---------0---------5-------------3--------------------------------------------|
A|---0---------2-------2/3-------------3-3--------------------------------------------|
E|---------------------------------0h1---1--------------------------------------------|

Sometimes it changes to this
e|-----------------------------------------1-------------------------------------------|
B|--------1h3------3------------5----------1-------------------------------------------|
G|--------0--------0------------0----------2-------------------------------------------|
D|-----2-----------0---------5-------------3-------------------------------------------|
A|---0----------2-------2/3-------------3--3-------------------------------------------|
E|------------3---------------------0h1----1-------------------------------------------|

Rhythm intro
e|------------------------------------------------|
B|----14-\-9~-----16-\-9~----14-\-9~--------7h9\--|
G|------------------------------------------------|
D|------------------------------------------------|
A|------------------------------------------------|
E|------------------------------------------------|

Chorus
e|---0----------0----------1-----0----3--|
B|---1----3-----1----------1-----1----3--|
G|---0----0-----2----------2-----0----0--|
D|---2----0-----2----------3-----2----0--|
A|---3----2-----0----------3-----3----2--|
E|------------------------------------3--|

Bridge
e|----5-----(3)--------3-----------------------------------------------------------|
B|----6------5---------3-----------------------------------------------------------|
G|----5------5---------3-----------------------------------------------------------|
D|----7------5---------3-----------------------------------------------------------|
A|----5------3---------5-----------------------------------------------------------|
E|---------------------3-----------------------------------------------------------|

Chorus plays again. thats the whole song. this is the most accurate version you'll find.


************************************

| /   slide up
| \   slide down
| h   hammer-on
| p   pull-off
| ~   vibrato
| +   harmonic
| x   Mute note
| b   Bend
| pb  Pre-bend
| br  Bend release
| pbr Pre-bend release
| brb Bend release bend

************************************
Tap to rate this tab
 
# A B C D E F G H I J K L M N O P Q R S T U V W X Y Z