Monkey Majik - Galileo tab

Standard tuning
I missed the rhythm part, but everything else should be here

Chorus/Verse/Main Riff
e|--------------------------------------------------------------------------------------|
B|---10----10---------------------------------------------------------------------------|
G|---9-----9-----11---9----7----7-----7----9--------------------------------------------|
D|---7-----6-----11---9----7----7-----7----9--------------------------------------------|
A|---------------9----7----5----4-----5----7--------------------------------------------|
E|--------------------------------------------------------------------------------------|

Between verses rhythm plays an A power chord while rhythm plays this
e|-------------------------------------------------------------17--|
B|----14---15--14--15--14--15--14-------14------15-14-15-14--------|
G|----14---------------------------14---14-------------------------|
D|----14--------------------------------14-------------------------|
A|----12--------------------------------12-------------------------|
E|-----------------------------------------------------------------|




************************************

| /   slide up
| \   slide down
| h   hammer-on
| p   pull-off
| ~   vibrato
| +   harmonic
| x   Mute note
| b   Bend
| pb  Pre-bend
| br  Bend release
| pbr Pre-bend release
| brb Bend release bend

************************************
Tap to rate this tab
 
# A B C D E F G H I J K L M N O P Q R S T U V W X Y Z