Song name
# A B C D E F G H I J K L M N O P Q R S T U V W X Y Z

Monkey Majik - Sora Wa Maru De tab

Standard tuning. Capo 2nd fret


e|---------------------------2-------------3----------------------------------------|
B|-----------5---3--------------3----------3----------------------------------------|
G|-----4-----------4-----4---------4-------0----------------------------------------|
D|--5-----5------------5----5--------------0----------------------------------------|
A|-----------------------------------------2----------------------------------------|
E|-----------------------------------------3----------------------------------------|

Main chords/chorus/verse
e|----3----2---3------0---3---2--3--2--0--2----------------------------------------------|
B|----3----3---3------1---3---3--3--3--3--3----------------------------------------------|
G|----0----2---0------0---0---2--2--2--2--2----------------------------------------------|
D|----0----0---2------2---0---0--0--0--0--0----------------------------------------------|
A|----2--------2------3---2--------------------------------------------------------------|
E|----3--------0----------3--------------------------------------------------------------|

e|--3----2----0----0----2--3---------------------------------------------------------|
B|--3----0----0----1----3--3---------------------------------------------------------|
G|--0----2----0----0----2--0---------------------------------------------------------|
D|--0----1----2----2----0--0---------------------------------------------------------|
A|--2----2----2----3-------2---------------------------------------------------------|
E|--3---------0------------3---------------------------------------------------------|

Before pre-chorus the pattern changes to the first one, where the G chord is before the D chord.

Pre-chorus
e|--1---3-----1----3----1---0----0----2------------------------------------------------|
B|--1---3-----1----3----1---1----1----3------------------------------------------------|
G|--2---0-----2----0----2---0----2----2------------------------------------------------|
D|--3---0-----3----0----3---2----2----0------------------------------------------------|
A|--3---2-----3----2----3---3----0-----------------------------------------------------|
E|------3----------3-------------------------------------------------------------------|

One part the intro notes are played again then goes to this
e|--3-----2----0-----0--------0-----2-------------------------------------------------|
B|--3-----0----0-----1---3----1-----3-------------------------------------------------|
G|--0-----2----0-----0---0----2-----2-------------------------------------------------|
D|--0-----1----2-----2---0----2-----0-------------------------------------------------|
A|--2-----2----2-----3---2----0-------------------------------------------------------|
E|--3----------0----------------------------------------------------------------------|
x2

then
e|---0---0------0--0-----0--0---------6--5---------------------------------------------|
B|---1---0------1--0-----1--0---------8--7---------------------------------------------|
G|---2---0------2--0-----2--0---------7--7---------------------------------------------|
D|---2---2------2--2-----2--2---------8--7---------------------------------------------|
A|---0---2------0--2-----0--2---------6--5---------------------------------------------|
E|-------0---------0--------0----------------------------------------------------------|


then the main chorus chords slowly till the end of the song.


************************************

| /   slide up
| \   slide down
| h   hammer-on
| p   pull-off
| ~   vibrato
| +   harmonic
| x   Mute note
| b   Bend
| pb  Pre-bend
| br  Bend release
| pbr Pre-bend release
| brb Bend release bend

************************************
Tap to rate this tab
 
# A B C D E F G H I J K L M N O P Q R S T U V W X Y Z