Monkey Majik - Happiness Live tab

The studio version is pretty much the same only it's played a whole step higher.
Standard tuning

Main chords/verse
e|-----------------------------------------------------|
B|-----------------------------------------------------|
G|-------7----7-----5----5-5------4----4----4-----4-4--|
D|-------5----5-----4----4-4------4----4----4-----4-4--|
A|--0--6----6-----5----5-------------------------------|
E|----------------------------0-3----3----3----3-------|

Pre-chorus
e|-----------------------------------------------------------------------------------|
B|-----------------------------------------------------------------------------------|
G|------5------5-------7------7------------------------------------------------------|
D|----5-5-----4------7-7-----6-------------------------------------------------------|
A|----------5--------------7---------------------------------------------------------|
E|--5---------------7----------------------------------------------------------------|

Chorus
e|---------------------------------------------------------------------------------------|
B|---------------------------------------------------------------------------------------|
G|-----9----9---9----9-9------7---7---7---7-7--------------------------------------------|
D|-----7----7---7----7-7------6---6---6---6-6--------------------------------------------|
A|----8---8---8---8---------7---7---7---7------------------------------------------------|
E|---------------------------------------------------------------------------------------|
 then goes to the main verse chords again


at the end he finishes the chorus like this
e|-----------------------------------|
B|-----------------------------------|
G|-------7----7-----5----5-5------4--|
D|-------5----5-----4----4-4------4--|
A|--0--6----6-----5----5-------------|
E|--------------------------------3--|

ending
e|---------------------------------------------------------------------------------------|
B|---------------------------------------------------------------------------------------|
G|--9-9----10-10----7-7------9-9---------------------------------------------------------|
D|--7-7----9--9-----6-6------7-7---------------------------------------------------------|
A|--8-8----10-10----7-7----8-------------------------------------------------------------|
E|---------------------------------------------------------------------------------------|


************************************

| /   slide up
| \   slide down
| h   hammer-on
| p   pull-off
| ~   vibrato
| +   harmonic
| x   Mute note
| b   Bend
| pb  Pre-bend
| br  Bend release
| pbr Pre-bend release
| brb Bend release bend

************************************
Tap to rate this tab
 
# A B C D E F G H I J K L M N O P Q R S T U V W X Y Z