Monkeysoop - Breathe tab

Band-Monkeysoop
Song-Breathe
Cd-Nuns Night Out

Part-1
e----------------------------------------------1---0--------1--0----|
b--1--0------------1--0---1--3---1--0-----------------1-----------1-|
g---------0----0-----------------------0----0------------0----------|
d------------2---------------------------2--------------------------|
a--3---------------3-------------3-------------3------------3-------|
-e------------------------------------------------------------------|


Part-2
e--------------------------------------------------------------|
b--------------------------------------------------------------|
g--2-2-3-2-0---------------2-2-3-2-0---------------2-2-3-2-0---|
d--3-3-3-3-3---2-2-3-2-0---3-3-3-3-3---2-2-3-2-0---3-3-3-3-3---|
a--------------3-3-3-3-3---------------3-3-3-3-3---------------|
e--------------------------------------------------------------|


e--------------|
b--------------|
g--------------|
d--2-2-3-2-0---|
a--3-3-3-3-3---|
e--------------|


Part-3
e-------------|
b-------------|
g-------------|
d-------------|
a--2-2-3-2-0--|
e--3-3-3-3-3--|

Part-1x2
Part-2x1
Part-3x1
Part-1x2
Part-2x1
Part-3x1
Part-2x1
Part-3x2
Tap to rate this tab
 
# A B C D E F G H I J K L M N O P Q R S T U V W X Y Z