Guitaretab - guitar tabs
Song name
# A B C D E F G H I J K L M N O P Q R S T U V W X Y Z

Mono - Ashes In The Snow tab

-------------------------------------------------------------------------------
                          Ashes In The Snow - Mono
-------------------------------------------------------------------------------
Tabbed by: julian
Email: julianprott@web.de

Tuning: Standard  EADGBe

Beautiful song by Mono... 
Live I stood right before them so I can say this tab is 99,9% right ;)


Guitar 2 plays this the whole intro:
e|---------------------------------------------------------------------------|
B|--------------13-12---------10-8-------6-5-------6-5-----------------------|
G|-16-------14--------12--10-------9--7------5--7------5---------------------|
D|---------------------------------------------------------------------------|
A|-14------------------------------------------------------------------------|
E|---------------------------------------------------------------------------|
   ^ noise at the beginning 

Guitar 1:
e|----12----12----12----12----12-------12----12----12----12-0----------------|
B|-15----13----12----10----12-------17----15----13----12---------------------|
G|---------------------------------------------------------------------------|
D|---------------------------------------------------------------------------|
A|---------------------------------------------------------------------------|
E|---------------------------------------------------------------------------|

e|----12----12----12----12----10----------------12----12----12----12----12---|
B|-15----13----12----10----12-----12--13-----15----13----12----10----12------|
G|---------------------------------------------------------------------------|
D|---------------------------------------------------------------------------|
A|---------------------------------------------------------------------------|
E|---------------------------------------------------------------------------|

e|----12----12----12----12-0-------12----12----12----12----10----------------|
B|-17----15----13----12---------15----13----12----10----12----13131313131313-|
G|---------------------------------------------------------------------------|
D|---------------------------------------------------------------------------|
A|---------------------------------------------------------------------------|
E|---------------------------------------------------------------------------|


From now only fast tremolo picking, you will figure out how long the notes are played ;)
e|---------------------------------------------------------------------------|
B|-13--12-10-8--10-12-10--12--13-15-17-15---x2-------------------------------|
G|---------------------------------------------------------------------------|
D|-10---9--7-5---7--9--7--9---10-12-14-12------------------------------------|
A|---------------------------------------------------------------------------|
E|---------------------------------------------------------------------------|

e|------------------------------------------------17--19--20--22--20---------|
B|-17--15-13-12--13-15-13--15-17-18-17--21---x2------------------------------|
G|------------------------------------------------14--16--17--19--17---------|
D|-14--12-10--9--10-12-10--12-14-15-14--18-----------------------------------|
A|---------------------------------------------------------------------------|
E|---------------------------------------------------------------------------|

Distortion!!
e|---------------------------------------------------------------------------|
B|---------------------------------------------------------------------------|
G|-14--9--7-9--11-12-11--14--12-14-16--14-16-17--16-17-19--21-19---x2--------|
D|---------------------------------------------------------------------------|
A|-12--7--5-7---9-10--9--12--10-12-14--12-14-15--14-15-17--19-17-------------|
E|---------------------------------------------------------------------------|

                | clear
e|--------------|------------------------------------------------------------|
B|--------------|------------------------------------------------------------|
G|-14--97-9----|---9--7-5-12--10--13---x2----------------------------------|
D|--------------|------------------------------------------------------------|
A|-12--7-5-7----|---7--5-3-10---8--11----------------------------------------|
E|--------------|------------------------------------------------------------|

[ Tab from: http://www.guitaretab.com/m/mono/184700.html ]
e|----12----12----12----12----12-------12----12----12----12------------------|
B|-15----13----12----10----12-------15----13----12----10----12---------------|
G|---------------------------------------------------------------------------|
D|---------------------------------------------------------------------------|
A|---------------------------------------------------------------------------|
E|---------------------------------------------------------------------------|
e|----12----12----12----12----12-------12----12----12----10-12---------------|
B|-15----13----12----10----12-------17----15----13----12---------------------|
G|---------------------------------------------------------------------------|
D|---------------------------------------------------------------------------|
A|---------------------------------------------------------------------------|
E|---------------------------------------------------------------------------|

e|---------------------------------------------------------------------------|
B|---------------------------------------------------------------------------|
G|-12--13--16-----4-5-7-9-10-12--9-10-12-13--9-7-9--14--12-10-9--7-5-4--7----|
D|--------------7------------------------------------------------------------|
A|-10--11--14-----2-3-5-7--8-10--7--8-10-11--7-5-7--12--10--8-7--5-3-2--5----|
E|--------------5------------------------------------------------------------|

e|---------------------------------------------------------------------------|
B|--------------------------------------13--12-10-15-12--17--18-17--12-13-15-|
G|---4-5-7-9-10-12--9-10-12-13--9-7-9----------------------------------------|
D|-7------------------------------------10---9--7-12--9--14--15-14---9-10-12-|
A|---2-3-5-7--8-10--7--8-10-11--7-5-7----------------------------------------|
E|-5-------------------------------------------------------------------------|

e|-15-----------15---------------17-19-20--------------------|---------------|
B|-----12-13-15-----12-13-15-17-----------15--12-13-15-------|---------------|
G|-12-----------12---------------14-16-17--------------------|---------------|
D|------9-10-12------9-10-12-14-----------12---9-10-12-------|---------------|
A|-----------------------------------------------------------|---------------|
E|-----------------------------------------------------------|---------------|
                                                             | 3x
e|-----------------------------------------------------------|---------------|
B|-18--12-13-15-17--12-13-15-17--15--12-13-15----------------|---------------|
G|-----------------------------------------------------------|---------------|
D|-15---9-10-12-15---9-10-12-14--12---9-10-13----------------|---------------|
A|-----------------------------------------------------------|---------------|
E|-----------------------------------------------------------|---------------|

Distortion!!
e|---------------------------------------------------------------------------|
B|-8--------8-----------10-12-13---------------------------------------------|
G|----4-5-7----4-5-7-9-----------7--4-5-7-10--4-5-7-9--4-5-7-9--7--4-5-7---x2|
D|-5--------5------------7--9-10---------------------------------------------|
A|----2-3-5----2-3-5-7-----------5--2-3-5--8--2-3-5-7--2-3-5-7--5--2-3-5-----|
E|---------------------------------------------------------------------------|

e|-15-----------15---------------17-19-20------------------------------------|
B|-----12-13-15-----12-13-15-17-----------15--12-13-15-----------------------|
G|-12-----------12---------------14-16-17------------------------------------|
D|------9-10-12------9-10-12-14-----------12---9-10-12-----------------------|
A|---------------------------------------------------------------------------|
E|---------------------------------------------------------------------------|

e|---------------------------------------------------------------------------|
B|-18--12-13-15-17--12-13-15-17--15--12-13-15--------------------------------|
G|---------------------------------------------------------------------------|
D|-15---9-10-12-15---9-10-12-14--12---9-10-13--------------------------------|
A|---------------------------------------------------------------------------|
E|---------------------------------------------------------------------------|

e|-15-----------15---------------17-19-20------------------------------------|
B|-----12-13-15-----12-13-15-17-----------15--12-13-15-----------------------|
G|-12-----------12---------------14-16-17------------------------------------|
D|------9-10-12------9-10-12-14-----------12---9-10-12-----------------------|
A|---------------------------------------------------------------------------|
E|---------------------------------------------------------------------------|

first guitarist holds this note till the end
e|---------------------!----|------------------------------------------------|
B|-18--12-13-15-17-----!----|------------------------------------------------|
G|-----------------16-14----|----9--11-12-11-9------------9--11-12-14-16-9---|
D|-15---9-10-12-15----------|------------------------------------------------|
A|-----------------14-12----|----7---9-10--9-7------------7---9-10-12-14-7---|
E|--------------------------|------------------------------------------------|
                                 !                        !
the other guitarist repeats this part quite often and ends like this


===============================================================================
Related for Ashes In The Snow tab