Guitaretab - guitar tabs
Song name
# A B C D E F G H I J K L M N O P Q R S T U V W X Y Z

Mono - A Thousand Paper Cranes tab

Listend to the song and use the parts.

1

e|-------------------------------------------------|
b|-------------------------------------------------|
g|--3------6------13------10------11---------------|
d|-------------------------------------------------|
a|-------------------------------------------------|
e|------------------------------------------------|

2

e|-------------------------------------------------|
b|-------------------------------------------------|
g|--3------6------13------15------11---------------|
d|-------------------------------------------------|
a|-------------------------------------------------|
e|------------------------------------------------|

3
[ Tab from: http://www.guitaretab.com/m/mono/72270.html ]
e|------------------------------------------------------------|
b|------------------------------------------------------------|
g|--16---16---15--13------16-16--15--13--15--16--18--16--15---|
d|------------------------------------------------------------|
a|------------------------------------------------------------|
e|-----------------------------------------------------------|

4

e|--------------------------------------------------------------|
b|--------------------------------------------------------------|
g|--16---16---15--13------16-16--15--13--15--16--18--16--15-----|
d|--------------------------------------------------------------|
a|--------------------------------------------------------------|
e|-------------------------------------------------------------|

5

Use this to get back from 4 to 1.

e|--------------------------------------------------------------|
b|--------------------------------------------------------------|
g|--13-----11-----6---------------------------------------------|
d|--------------------------------------------------------------|
a|--------------------------------------------------------------|
e|-------------------------------------------------------------|
Related for A Thousand Paper Cranes tab