Song name
# A B C D E F G H I J K L M N O P Q R S T U V W X Y Z

Monoloque - Chinta tab

Artist-monoloQue
Title-Chinta
Tuning-Standard
Description:Akar Vs Kukubesi,Galeri Shah Alam,2011


tabbed by deeplut
visit my blog at deeplut.blogspot.com


   A     A7M    A7    D    Dm   D7M9  Dsus2   E    D7M
E|--0--|--0--|--0--|--2--|--3--|-----|--0--|--0--|-----|
A|--2--|--2--|--2--|--0--|--2--|--2--|--3--|--0--|--2--|
D|--2--|--1--|--0--|--0--|--0--|--2--|--2--|--1--|--2--|
G|--2--|--2--|--2--|--2--|--0--|--0--|--0--|--2--|--0--|
B|--0--|--0--|--0--|--3--|--2--|--0--|-----|--2--|--4--|
e|-----|-----|-----|-----|-----|--2--|-----|--0--|-----|




intro
E|--0--------------4----------------------------------|
A|--2-----2--3--5-----5--3--2-----2--3--5--3--2----2--|
D|--2--2-----------------------2-----------------2----|
G|--2-------------------------------------------------|
B|--0-------------------------------------------------|
e|----------------------------------------------------|


 A                  A7M
kau hadir bila tiba waktunya

            A7              D
tidak diundang,tak jua dipinta

 A                  A7M               A7
walau ku lari namun kau tetap datang jua

           D
keranamu cinta

             Dm
tak mampu menahannya

 A           A7M
aku terus mencuba

        A7         D
untuk lari dari cinta

 A              A7M
kerana perit terasa

      A7        D
sengsara tanpa kata

         Dm
kerana dusta


 D7M9    Dsus2      E
cinta kau luluhkan hati ini

  D7M9          D7M   D7M9
membuatnya segalanya indah

 Dsus2      E          D7M9    
walau sesekali menjengah tiba

D7M
oh

 D7M9  Dsus2    E     D7M9   D7M
cinta terasa bahagia

D7M9    Dsus2    E  D7M9  D7m
hanya menunggu saat dan tika


 A               A7M
aku akan terus melangkah

           A7
walau tanpamu

      D
oh cinta

 A              A7M9
aku yakin akan adanya

  A7        D                 Dm
setia ceritera yang tiada akhirnya


 D7M9    Dsus2      E
cinta kau luluhkan hati ini

  D7M9          D7M   D7M9
membuatnya segalanya indah

 Dsus2      E          D7M9    
walau sesekali menjengah tiba

D7M
oh

 D7M9  Dsus2    E     D7M9   D7M
cinta terasa bahagia

D7M9    Dsus2    E  D7M9  D7m
hanya menunggu saat dan tika

 A          A7M
cinta abadi cinta

           A7         D
cinta pada-Nya cinta satu

          Dm
cinta selamanya
Tap to rate this tab
# A B C D E F G H I J K L M N O P Q R S T U V W X Y Z