Song name
# A B C D E F G H I J K L M N O P Q R S T U V W X Y Z

Mononc Serge - Maman Dion tab

artiste: Mononc' Serge
toune: Maman Dion
album: Mon voyage au Canada


la caméra tourne on fait jouer la tite toune...
|-------------------------------------------------------|
|-------------------------------------------------------|
|-------------------------------------------------------|
|----------2------------3-2-----------2------------3-2--|
|--0----3-------0----3--------0----3-------0----3-------|
|-------------------------------------------------------|

la cruche mépluche la torche mécorche...
|-------------------------------------------------------|
|-------------------------------------------------------|
|-------------------------------------------------------|  4X
|--2----5-9-----2----5-109----2----5-9-----2----5-109---|
|--0----3-7-----0----3-8-7----0----3-7-----0----3-8-7---|
|-------------------------------------------------------|

j'm'achète un players king size...
|-------------------------------------------------------|
|-------------------------------------------------------|
|-------------------------------------------------------|
|--5--5-5-5--5-5-7-7-7-7-7--7-7-8-8-8-8-8--8-8-10101010-|
|--3--3-3-3--3-3-5-5-5-5-5--5-5-6-6-6-6-6--6-6-8-8-8-8--|
|-------------------------------------------------------|

fuck you fuck you fuck you fuck you
|------------------------------------|
|------------------------------------|
|------------------------------------|
|------------------------------------|
|-7-7-7-7-7-7-7-7-7-7-7-7-7-7-7-7-7--|
|-5-5-5-5-5-5-5-5-5-5-5-5-5-5-5-5-5--|

fuck tes recettes pis fuck tes chaudrons    fuck you fuck you     moman Dion
|---------------------------------------|----------------------------------|
|---------------------------------------|----------------------------------|
|---------------------------------------|----------------------------------|
|--5-----------------7------------------|----------------------------------|
|--3-----------------5------------------|--7-7------7-7-------------7-5-7--|
|---------------------------------------|--5-5------5-5-------------5-3-5--|


|----------------------------------------------|
|----------------------------------------------|
|----------------------------------------------| 4X
|------------------5-7-8-----------------------|
|--7-----5---------3-5-6-7-----5---------------|
|--5-----3---------------5-----3---------------|
Tap to rate this tab
 
# A B C D E F G H I J K L M N O P Q R S T U V W X Y Z