Song name
# A B C D E F G H I J K L M N O P Q R S T U V W X Y Z

Monoral - Kiri - Ergo Proxy tab

Help us improve GuitareTab! Take a short survey!


MONORAL-KIRI
Song with "Ergo proxy"

Tabbed by:MrRedFlower
"watch my video on "youtube"



Tune Drop D

1.E 4.D
2.B 5.A
3.G 6.D

Intro
E|---------------|---------------|
B|--3------3---4-|--3------3---4-|
G|-----3---------|-----3---------|
D|---------------|---------------|
A|---------------|---------------|
D|---------------|---------------|   
Chorus

E|---------------------------------------------------------|
B|---------------------------------------------------------|
G|---------------------------------------------------------|
D|--8-8-8-8-8--10-10-10-10-10--6-6-6-6--1-1-1-1-1-1--------|
A|--8-8-8-8-8--10-10-10-10-10--6-6-6-6--1-1-1-1-1-1--------|
D|--8-8-8-8-8--10-10-10-10-10--6-6-6-6--1-1-1-1-1-1--------|


that's all :)) please correct me 
see ya! 
Related for Kiri - Ergo Proxy tab