Song name
# A B C D E F G H I J K L M N O P Q R S T U V W X Y Z

Monovine - Devil Kiss Gods Lips tab

http://www.myspace.com/monovine

standard tuning

intro-verse
------------------------------------------------------|
------------------------------------------------------|
------------------------------------------------------|
------------------------------------------------------|
------------------------------------------------------|
-3--3--3-3-3-3--3-3--3-3-3--5--5--5-5-5-4--4-4--4-4-4-| x8


theme
--------------------------------------------|
--------------------------------------------|
--------------------------------------------|
-5--5----------------------7-7-7-7-6-6-6-6--|
-5--5--5-5-5-5--5-5--5-5---7-7-7-7-6-6-6-6--|
-3--3--3-3-3-3--3-3--3-3-0-5-5-5-5-4-4-4-4--| x4
       * * * *  * *  * *

verse x4

theme x4

bridge

--------------------------------------------------------|
--------------------------------------------------------|
--------------------------------------------------------|
-8--8--8-8-8-8--8-8--8-8-8-8-7--7--7-7-7-6--6-6-5--5-5--|
-8--8--8-8-8-8--8-8--8-8-8-8-7--7--7-7-7-6--6-6-5--5-5--|
-6--6--6-6-6-6--6-6--6-6-6-6-5--5--5-5-5-4--4-4-3--3-3--| x4

--------|
--------|
-4~--4~-|
-5~--5~-|
-5~--5~-|
-3~--3~-|


----------------|
----------------|
-10-11---10-11--|
--------------0-|
----------------|
----------------| x2


---------------------------------|
-10h11-11--10h11-11--10-10-9-9---|
------0--0------0--0---0--0-0-0--|
---------------------------------|
---------------------------------|
---------------------------------| x4

theme x8
end on G maj
Tap to rate this tab
# A B C D E F G H I J K L M N O P Q R S T U V W X Y Z