Song name
# A B C D E F G H I J K L M N O P Q R S T U V W X Y Z

Monster Magnet - Powertrip tab

Powertrip by Monster Magnet
Album: Powertrip
Standard Tuning (EADGBe)


Intro: (Clean or Semi dist)

Strumming Pattern
    D U D U D U D U D D
e|------------------------------------------------|
B|------------------------------------------------|
G|--9-7-7-7-9-7-7-7-9-7---------------------------|
D|--9-7-7-7-9-7-7-7-9-7---------------------------|
A|--7-5-5-5-7-5-5-5-7-5---------------------------|
E|------------------------------------------------|x7

Strumming Pattern:   
    D  D U D U D U
e|------------------------------------------------|
B|------------------------------------------------|
G|--5--5-5-5-5-5-5--------------------------------|
D|--5--5-5-5-5-5-5--------------------------------|
A|--3--3-3-3-3-3-3--------------------------------|
E|------------------------------------------------|


    D U D U D U D U D D
e|------------------------------------------------|
B|------------------------------------------------|
G|--9-7-7-7-9-7-7-7-9-7---------------------------|
D|--9-7-7-7-9-7-7-7-9-7---------------------------|
A|--7-5-5-5-7-5-5-5-7-5---------------------------|
E|------------------------------------------------|


e|------------------------------------------------|
B|------------------------------------------------|
G|--5-5-5---7-7-7----9----------------------------|
D|--5-5-5-5-7-7-7-7--9----------------------------|
A|--3-3-3-5-5-5-5-7--7----------------------------|
E|--------3-------5-------------------------------|

Riff: (Same as intro, but with dist.)

Strumming Pattern
    D U D U D U D U D D
e|------------------------------------------------|
B|------------------------------------------------|
G|--9-7-7-7-9-7-7-7-9-7---------------------------|
D|--9-7-7-7-9-7-7-7-9-7---------------------------|
A|--7-5-5-5-7-5-5-5-7-5---------------------------|
E|------------------------------------------------|x7


e|------------------------------------------------|
B|------------------------------------------------|
G|--5-5-5---7-7-7----9----------------------------|
D|--5-5-5-5-7-7-7-7--9----------------------------|
A|--3-3-3-5-5-5-5-7--7----------------------------|
E|--------3-------5-------------------------------|


Chorus:


e|------------------------------------------------|
B|------------------------------------------------|
G|------------------------------------------------|
D|--2-2-2-2-----------5-5-7-7---------------------|
A|--0-0-0-0--5-5-5-5--3-3-5-5--2-2-2-2------------|
E|-----------3-3-3-3-----------0-0-0-0------------|


e|------------------------------------------------|
B|------------------------------------------------|
G|------------------------------------------------|
D|--2-2-2-2-----------5-5-7-7---------------------|
A|--0-0-0-0--5-5-5-5--3-3-5-5--2-2----------------|
E|-----------3-3-3-3-----------0-0--2-0-2-0-------|


Solo: Just do something in the key of E
Tap to rate this tab
# A B C D E F G H I J K L M N O P Q R S T U V W X Y Z