Song name
# A B C D E F G H I J K L M N O P Q R S T U V W X Y Z

Monster Magnet - Little Bag Of Gloom tab


Band: Monster Magnet
album: 4 way Diablo
song: little bag of gloom

Transcribed by Joshua Uttley

Original song done with Organ!!!!

any comments e-mail me at:  alienape@sbcglobal.net



Intro:
   C  Am G   C      C  Am G   C      C  Am G   C     C  Am G C F C G  C
|--------3-------|--------3-------|--------3------|--------3---1--------|
|--1--1--0---1---|--1--1--0---1---|--1--1--0---1--|--1--1--0-1-1-1-0--1-|
|--0--2--0---0---|--0--2--0---0---|--0--2--0---0--|--0--2--0-0-2-0-0--0-|
|--2--2--0---2---|--2--2--0---2---|--2--2--0---2--|--2--2--0-2-3-2-0--2-|
|--3-----2---3---|--3-----2---3---|--3-----2---3--|--3-----2-3---3-2--3-|
|--------3-------|--------3-------|--------3------|--------3-------3----|

  F  C     E
|-1--------0------|-----------------|---------------|--1---------1----0-|
|-1--1-----0------|-1--1--0---1-----|-1--1--0---1---|--1--1--0-1-1-1--0-|
|-2--0-----1------|-0--2--0---0-----|-0--2--0---0---|--2--0--0-0-2-0--1-|
|-3--2-----2------|-2--2--0---2-----|-2--2--0---2---|--3--2--0-2-3-2--2-|
|----3-----2------|-3-----2---3-----|-3-----2---3---|-----3--2-3---3--2-|
|----------0------|-------3---------|-------3-------|--------3--------0-|

Solo:

|-----------------|-----------------|---------------|-------------------|
|-----------------|-----------------|---------------|-------------------|
|--7/9-9--7/9-9---|--7/9-9\7-7\5-5--|-7/9\7--5------|-7/9\7--5--4--7\5--|
|-----------------|-----------------|---------------|-------------------|
|--5/7-7--5/7-7---|--5/7-7\5-5\3-3--|-5/7\5--3------|-5/7\5--3--2--5\3--|
|-----------------|-----------------|---------------|-------------------|

|----------------|-----------------|------------------|-----------------|
|----------------|-----------------|------------------|-----------------|
|--7/9--10--9----|-9b--------------|------9/10--9---9-|-----------------|
|----------------|-----------------|------------------|-----------------|
|--5/7--8---7----|-7b--------------|--5/7-7/8---7\5---|-----------------|
|----------------|-----------------|----------------7-|-----------------|

ending:
  C  Am G   C       C  Am G   C      F  C  G C F C  E
|-----------------|---------------|--1---------1----0-|
|-1--1--0---1-----|-1--1--0---1---|--1--1--0-1-1-1--0-|
|-0--2--0---0-----|-0--2--0---0---|--2--0--0-0-2-0--1-|
|-2--2--0---2-----|-2--2--0---2---|--3--2--0-2-3-2--2-|
|-3-----2---3-----|-3-----2---3---|-----3--2-3---3--2-|
|-------3---------|-------3-------|--------3--------0-|


Tap to rate this tab
# A B C D E F G H I J K L M N O P Q R S T U V W X Y Z