Song name
# A B C D E F G H I J K L M N O P Q R S T U V W X Y Z

Monster Magnet - Tractor tab

-------------------------------------------------------------------------------
			     Monster Magnet - Tractor
-------------------------------------------------------------------------------
Tabbed by:Billy
Email:billyfjarvis@hotmail.com

Tuning:standard


strum pattern is what I do, good song change it up though

Intro:                                                             YEAH!
e|---------------------------------------------------------------------|
B|---------------------------------------------------------------------|
G|---------------------------------------------------------------------|
D|--10-10-10-13---13-13-----8-8-8--10---10-10-----10-10-10-13--8--10---| x2
A|--10-10-10-13---13-13-----8-8-8--10---10-10-----10-10-10-13--8--10---|
E|--8--8--8--11---11-11-----6-6-6--8----8--8------8--8--8--11--6--8----|

e|---------------------------------------------------------------------|
B|---------------------------------------------------------------------|
G|---------------------------------------------------------------------|
D|--10-10-10-13---13-13-----8-8-8--10---10-10-----10-10-10-13--17--10--|
A|--10-10-10-13---13-13-----8-8-8--10---10-10-----10-10-10-13--17--10--|
E|--8--8--8--11---11-11-----6-6-6--8----8--8------8--8--8--11--15--8---|

Verse:
                                                           |  1,2 & 3    |
e|-----------------------------------------------------------------------|
B|-----------------------------------------------------------------------|
G|-----------------------------------------------------------------------|
D|-10-------------------------------------------------------10-13--17-13-|
A|-10-------------------------------------------------------10-13--17-13-|
E|-8--------------------------------------------------------8--11--15-11-|
      Well my buddy Joe gave me a laughin pill!
      Well it tasted like shit! And it gave me the chills!
      I saw his girlfriends face in a bucket of waterrr!
      He said a buck for the snatch and a nibbles a quarter!


e|-------------|      e|--------------|
B|-------------|      B|--------------|
G|-------------|      G|--------------|
D|--10-13-8-10-| x3   D|--10-13-17-10-|
A|--10-13-8-10-|      A|--10-13-17-10-|
E|--8--11-6-8--|      E|--8--11-15-8--|

Verse:
                                                           |  1,2 & 3    |
e|-----------------------------------------------------------------------|
B|-----------------------------------------------------------------------|
G|-----------------------------------------------------------------------|
D|-10-------------------------------------------------------10-13--17-13-|
A|-10-------------------------------------------------------10-13--17-13-|
E|-8--------------------------------------------------------8--11--15-11-|
      Well I'm tellin you freaks I got eyes in the back a my head
      And I can hear you laughing at me when I'm lying in bed!
      You better be righteous when you're cuttin me up
      Cause you'll be doin it wrong and I'll be fucking you up!


e|-------------|
B|-------------|
G|-------------|
D|--10-13-8-10-|
A|--10-13-8-10-|
E|--8--11-6-8--|


Chorus:

e|---------------------------------------------------|
B|---------------------------------------------------|
G|---------------------------------------------------|
D|-------10----------13-------------8-------------10-|
A|-------10----------13-------------8-------------10-|
E|-------8-----------11-------------6-------------8--|
Got   a  nail in  my head,  and I   know that I'm gone
When I'm drivin   my tractor on the drug          farm
Got   a  knife in my back,  got a   hole  in my   arm
When I'm drivin   my tractor in the drug          farm

(Chorus again)

The solo is just inprov through the chord pattern with a fast rocking wah or phaser 
on the 5th string)

Intro first riff
Chorus
Chorus

Outro:

e|-----------------------------|
B|-----------------------------|
G|-----------------------------|
D|-13-10--17-17----------------|x4 (G only for first 3)
A|-13-10--17-17----------------|
E|-11-8---15-15----------------|
Tap to rate this tab
 
# A B C D E F G H I J K L M N O P Q R S T U V W X Y Z