Song name
# A B C D E F G H I J K L M N O P Q R S T U V W X Y Z

Monster Magnet - Heads Explode tab

this is a great band with great songs. monster magnet rocks

MONSTER MAGNET
HEADS EXPLODE



t=10 frett because its easier
e=11 frett because its easier
ph=phazer

intro and verse 1
|------------------------------------------------|
|------------------------------------------------|
|------------------------------------------------|x3
|------------------------------------------------|
|------------------------------------------------|
|---0---3-0-5---0---3-0-5---0---3-0-5---0---3-0-5|

|------------------------------------------------|
|------------------------------------------------|
|------------------------------------------------|
|------------------------------------------------|
|---0---3-0-5---0---3-0-5---0---3-0-5---0---3-0-5|
|------------------------------------------------|

Chorus
|-----------------------------------------------------------------------|
|-----------------------------------------------------------------------|
|-----------------------------------------------------------------------|
|-2-2-2-22222-2-2---5-5-5-55555-5-5---7-7-7-77777-7-7---t-t-t-ttttt-t-t-|
|-2-2-2-22222-2-2---5-5-5-55555-5-5---7-7-7-77777-7-7---t-t-t-ttttt-t-t-|
|-0-0-0-00000-0-0---3-3-3-33333-3-3---5-5-5-55555-5-5---8-8-8-88888-8-8-|


verse 2                                          ph    
|---------------------------------|   |---------------------------|
|---------------------------------|   |---------------------------|
|---------------------------------|   |---------------------------|
|---------------------------------|x4 |---------------------------|x2
|-------7\5--------7\5--------7\5-|   |-0-0-0-12\10---0-0-0-12\10-|
|-0-0-0------0-0-0------0-0-0-----|   |---------------------------|



Chorus 2 gtr 1 
|-----------------------------------------------------------------------|
|-----------------------------------------------------------------------|
|-----------------------------------------------------------------------|
|-2-2-2-22222-2-2---5-5-5-55555-5-5---7-7-7-77777-7-7---t-t-t-ttttt-t-t-|x4
|-2-2-2-22222-2-2---5-5-5-55555-5-5---7-7-7-77777-7-7---t-t-t-ttttt-t-t-|
|-0-0-0-00000-0-0---3-3-3-33333-3-3---5-5-5-55555-5-5---8-8-8-88888-8-8-|


gtr 2 does that twice then does this on 3rd and 4th time
|---------------------------------------------------------|
|---------------------------------------------------------|
|---------------------------------------------------------|
|-14-14-14-1414141414-14-14---12-12-12-1212121212-12-12---|
|-14-14-14-1414141414-14-14---12-12-12-1212121212-12-12---|
|-12-12-12-1212121212-12-12---10-10-10-1010101010-10-10---|

|-----------------------------------|
|-----------------------------------|
|-----------------------------------|
|-e-e-e-eeeee-e-e---t-t-t-ttttt-t-t-|
|-e-e-e-eeeee-e-e---t-t-t-ttttt-t-t-|
|-9-9-9-99999-9-9---8-8-8-88888-8-8-|



guitar solo
|-------------------------------|--------------------------------|
|-------------------------------|--------------------------------|
|O-----------------------------O|--------------------------------|
|O-----------------------------O|--------------------------------|
|-----7-5~5-5h7p5~--------------|-0-0-5-7~7-7h8p7~5-5-3-5~5-5555-|
|-0-0-------------5-5-3-5~5-5-5-|--------------------------------|

                                 this part 4 times
|-------------------------------|----------------------|
|-------------------------------|----------------------|
|-------------------------------|----------------------|
|-------------------------------|----------------------|
|-----7-5~5-5h7p5~--------------|-----7-5~~~----7-5~~~-|
|-0-0-------------5-5-3-5~5-5-5-|-0-0-------0-0--------|

solo backing
|--------------------|
|--------------------|
|--------------------|
|-2-2-2-12-1212121212|x8
|-2-2-2-12-1212121212|
|-0-0-0-10-1010101010|
pm         * * * * *

verse 3
|--------------------------------------------------------|
|--------------------------------------------------------|
|--------------------------------------------------------|x2
|--------------------------------------------------------|
|--------------------------------------------------------|
|---0-0-0-3-0-5---0-0-0-3-0-5---0-0-0-3-0-5---0-0-0-3-0-5|

|--------------------------------------------------------|
|--------------------------------------------------------|
|--------------------------------------------------------|
|--------------------------------------------------------|
|---0-0-0-3-0-5---0-0-0-3-0-5---0-0-0-3-0-5---0-0-0-3-0-5|
|--------------------------------------------------------|


Chorus 3 gtr 1
|-----------------------------------------------------------------------|
|-----------------------------------------------------------------------|
|-----------------------------------------------------------------------|
|-2-2-2-22222-2-2---5-5-5-55555-5-5---7-7-7-77777-7-7---t-t-t-ttttt-t-t-|x4
|-2-2-2-22222-2-2---5-5-5-55555-5-5---7-7-7-77777-7-7---t-t-t-ttttt-t-t-|
|-0-0-0-00000-0-0---3-3-3-33333-3-3---5-5-5-55555-5-5---8-8-8-88888-8-8-|


gtr 2 on 3rd and 4th time
|---------------------------------------------------------|
|---------------------------------------------------------|
|---------------------------------------------------------|
|-14-14-14-1414141414-14-14---12-12-12-1212121212-12-12---|
|-14-14-14-1414141414-14-14---12-12-12-1212121212-12-12---|
|-12-12-12-1212121212-12-12---10-10-10-1010101010-10-10---|

|-----------------------------------|
|-----------------------------------|
|-----------------------------------|
|-e-e-e-eeeee-e-e---t-t-t-ttttt-t-t-|
|-e-e-e-eeeee-e-e---t-t-t-ttttt-t-t-|
|-9-9-9-99999-9-9---8-8-8-88888-8-8-|

on 4th time hold last note for a bit(both guitars do this same note)
this part 4x      then this part 4x really fast
|----------------|--------|
|----------------|--------|
|----------------|--------|
|t-t-t-ttttt-t-t-|tttttttt|
|t-t-t-ttttt-t-t-|tttttttt|
|8-8-8-88888-8-8-|88888888|


guitar solo 2
|--------------------------------------------------|
|--------------------------------------------------|
|--------------------------------------------------|
|--------------------------------------------------|x2
|-7-555-5-5-5--7-555-5-5-5--10-8-7-5---------------|
|------------------------------------5-5h7p3-5~5-5-|



|---------------------------------------------|
|---------------------------------------------|
|---------------------------------------------|
|---------------------------------------------|
|-7-555-5-5-5--7-555-5-5-5~--5-3-1-0-1--------|
|--------------------------------------5-3-1-0|


solo backing
|--------------------|
|--------------------|
|--------------------|
|-2-2-2-12-1212121212|x9
|-2-2-2-12-1212121212|
|-0-0-0-10-1010101010|
pm         * * * * * 


This is my first tab. i hope its good
Tap to rate this tab
 
# A B C D E F G H I J K L M N O P Q R S T U V W X Y Z