Song name
# A B C D E F G H I J K L M N O P Q R S T U V W X Y Z

Monster Magnet - All Shook Out tab

Artist: Monster Magnet
Title: All shook out
Album: God says no
Tabbed by: Marko
E-Mail: Metalmarko@addcom.de

Key:
b  = Bend
r  = Release bend
h  = Hammer
p  = Pull off
/  = Slide up
\  = Slide down
pm = Palm mute

Tuning: E A D G B E

Verse:

e|-----------------------------------------------------------------------|
B|-----------------------------------------------------------------------|
G|-5/7-7-7-7-7-7-7-------------------------------------------------------|
D|-5/7-7-7-7-7-7-7-------------------------------------------------------|
A|-3/5-5-5-5-5-5-5-------------------------------------------------------|
E|-----------------------------------------------------------------------|

e|-----------------------------------------------------------------------|
B|-----------------------------------------------------------------------|
G|-----------------------------------------------------------------------|
D|-3/5-5-5-5-5-5-5-------------------------------------------------------|
A|-3/5-5-5-5-5-5-5-------------------------------------------------------|
E|-1/3-3-3-3-3-3-3-------------------------------------------------------|

Chorus:

e|-----------------------------------------------------------------------|
B|-----------------------------------------------------------------------|
G|-5/7-7-7-7-7-7-7-------------------------------------------------------|
D|-5/7-7-7-7-7-7-7-8-8-8-8-5-5-5-5---------------------------------------|
A|-3/5-5-5-5-5-5-5-8-8-8-8-5-5-5-5---------------------------------------|
E|-----------------6-6-6-6-3-3-3-3---------------------------------------|

Fill:

e|-----------------------------------------------------------------------|
B|-----------------------------------------------------------------------|
G|-----------------------------------------------------------------------| bend and release 
D|-----------------------------------------------------------------------|  bend 16 times
A|--5-br-----------------------------------------------------------------|
E|-----------------------------------------------------------------------|

Solo:

Improvisation in C-Dur

Rythm over Solo:

e|-----------------------------------------------------------------------|
B|-----------------------------------------------------------------------|
G|-5/7-7-7-7-7-7-10-10-10-10---------------------------------------------|
D|-5/7-7-7-7-7-7-10-10-10-10-10-10-10-10---------------------------------|
A|-3/5-5-5-5-5-5--8--8--8--8-10-10-10-10---------------------------------|
E|----------------------------8--8--8--8---------------------------------|

pm|---------------|
e|-----------------------------------------------------------------------|
B|-----------------------------------------------------------------------|
G|-5/7-7-7-7-7-7-7-------------------------------------------------------|
D|-5/7-7-7-7-7-7-7-------------------------------------------------------| after solo
A|-3/5-5-5-5-5-5-5-------------------------------------------------------| 
E|-----------------------------------------------------------------------|

Tap to rate this tab
# A B C D E F G H I J K L M N O P Q R S T U V W X Y Z